Screeching Weasel - I Wanna Fuck Chords & Tabs

 

I Wanna Fuck Chords & Tabs

Screeching Weasel Chords & Tabs

Version: 1 Type: Tab 0 ratings
1 star 2 stars 3 stars 4 stars 5 stars
comments

I Wanna Fuck Tab

Song: I Wanna Fuck
Band: Screeching Weasel
Album: Teen Punks In Heat


-------------------------
-------------------------
---------------------10--
--7-8-8-8-8-9---7----10--
--7-8-8-8-8-9---7-----8--  x2
--5-6-6-6-6-7---5--------


--------------------
--------------------
----------9--10--7--
--7----7--9--10--7--
--7----7--7---8--5--   x2
--5----5------------

[ Tab from: http://www.guitartabs.cc/tabs/s/screeching_weasel/i_wanna_fuck_tab.html ]
---------------------------
---------------------------
--------10-----------------
---7----10----7-8-8-8-8-9--
---7-----8----7-8-8-8-8-9--  x1
---5----------5-6-6-6-6-7--


----------------------
----------------------
--------10------------
---7----10----7-7-7-7-
---7-----8----7-7-7-7-  x1
---5----------5-7-7-7-


--------------------                      ---
--------------------                      ---
----------9--10--7--                      ---
--7----7--9--10--7--                      -7-
--7----7--7---8--5--   x4      end on     -7-
--5----5------------                      -5-
Comments