Screeching Weasel - I Wanna Be Naked Chords & Tabs

 

I Wanna Be Naked Chords & Tabs

Screeching Weasel Chords & Tabs

Version: 3 Type: Bass Tab 0 ratings
1 star 2 stars 3 stars 4 stars 5 stars
comments

I Wanna Be Naked Bass Tab

Intro                                               Verse 
  Double-time feel               x3
| |----------------|---------------||---------------||----------------|--------------|
|4|.---------------|--------------.||---------------||.---------------|--------------|
|4|.--3--3-3-3-3-3-|-3-3--3-3--1--.||-3-------------||.--3--3-3-3-3-3-|-3-3--3-3--1--|
| |----------------|---------------||---------------||----------------|--------------|

|---------------|--------------|------------------|------------------|--------------|
|---------------|--------------|------------------|------------------|--------------|
|--3--3-3-3-3-3-|-3-3--3-3--1--|------------------|-1--1-1-1-1-1-1-1-|-3--3-3-3-3-3-|
|---------------|--------------|-4--4-4-4-4-4-4-4-|------------------|--------------|

                   Chorus
[ Tab from: http://www.guitartabs.cc/tabs/s/screeching_weasel/i_wanna_be_naked_btab_ver_3.html ]
|----------------||-----------------|----------------|----------------|-----------------||
|---------------.||.----------------|----------------|----------------|----------------.||
|--3-3--3-3--1--.||.-3--3-3-3-3-3-3-|-6--6-6-6-6-6-6-|----------------|----------------.||
|----------------||-----------------|----------------|-4--4-4-4-4-4-4-|-6--6-6-6-6-6-6--||

 Interlude                                          _________________  ____________
   Half-time feel                                  |1.                |2.
||-----------------|---------------|---------------|-----------------||------------|
||.----------------|-3--3--3-3-3-3-|-5--5--5-5-5-5-|----------------.||------------|
||.--3--3--3-3-3-3-|---------------|---------------|-3--3--3-3-3-3--.||-3----------|
||-----------------|---------------|---------------|-----------------||------------|
Comments