Screeching Weasel - I Wanna Be A Homosexual Chords & Tabs

 

I Wanna Be A Homosexual Chords & Tabs

Screeching Weasel Chords & Tabs

Version: 1 Type: Bass Tab 0 ratings
1 star 2 stars 3 stars 4 stars 5 stars
comments

I Wanna Be A Homosexual Bass Tab

Song: I wanna Be A Homo
Band: Screeching Weasel	
Album: Kill The Musicians and What are You Pointing At?
tabbed by: ALBINO  (bbfan@bellatlantic.net)
http://www.divineweb.com/tabs


			">" means to play the note a bunch of times


Intro X4
G:--------------------9-----9---9----------------------9-----9---9---
D:-----9-----9---9-------------------11-----11---11------------------
A:-----------------7----7-7---7---------------------7----7-7---7-----
E:--7----7-7---7------------------9-----9-9----9---------------------
[ Tab from: http://www.guitartabs.cc/tabs/s/screeching_weasel/i_wanna_be_a_homosexual_btab.html ]
   X4
G:---------------------------------------------------------------
D:---------------------------------------------------------------
A:---------------7---7--7-7-7--------------7---7--7-7-7----------
E:--7---7--7-7-7--------------9---9--9-9-9-----------------------


Verse X6
G:---------------------------------------------------------------
D:---------------------------------------------------------------
A:-----------7>--------------------------------------------------
E:--7>---9>------7>----------------------------------------------

  Chorus X4
G:---------------------------------------------------------------
D:---------------------------------------------------------------
A:------9>------7>-----------------------------------------------
E:--7>------4>---------------------------------------------------
Comments