Screeching Weasel - Holy Hardcore Chords & Tabs

 

Holy Hardcore Chords & Tabs

Screeching Weasel Chords & Tabs

Version: 1 Type: Tab 0 ratings
1 star 2 stars 3 stars 4 stars 5 stars
comments

Holy Hardcore Tab

TAbbed BY Matt Shepard
song: holy hardcore

Here is the guitar line played throughout the song... 
|---------------------------------------------------------------------------| 
|---------------------------------------------------------------------------| 
|---------------------------------------------------------------------------| 
|---------9-9-9-x-x-x-x-9-9-x-x-4-5-x-x-4-5-x-x-----------------------------| 
|---------7-7-7-x-x-x-x-7-7-x-x-2-3-x-x-2-3-x-x-----------------------------| 
|---------------------------------------------------------------------------| 
    "your in....."  "stage....." 
|---------------------------------------------------------------------------| 
|---------------------------------------------------------------------------| 
|---------------------------------------------------------------------------| 
|----7----------------------------------------------------------------------| 
|----5-x8-------------------------------------------------------------------| 
|---------------------------------------------------------------------------| 
   After they yell, "it's holy hardocre" go back to the beginning" 
[ Tab from: http://www.guitartabs.cc/tabs/s/screeching_weasel/holy_hardcore_tab.html ]
    and here is the solo (it isn't too hard to play once you get the hang of it) 
|---------------------------------------------------------------------------| 
|-15p13p12-15p13p12-15p13p12-15p13p12-15p13p12-15p13p12-15p13p12-15p13p12---| 
|---------------------------------------------------------------------------| 
|---------------------------------------------------------------------------| 
|---------------------------------------------------------------------------| 
|---------------------------------------------------------------------------| 

|--------------------------------t19p15p12-t19p15p12-t19p15p12-t19p15p12----| 
|-12----12-12----12-12-----12-----------------------------------------------| 
|-14b16----14b16----14b16--14b16--------------------------------------------| 
|---------------------------------------------------------------------------| 
|---------------------------------------------------------------------------| 
|---------------------------------------------------------------------------| 

|-t20p15p12-t20p15p12-t20p15p12-t20p15p12-16b17-16b17-13-16b17b18-13--------| 
|---------------------------------------------------------------------------| 
|---------------------------------------------------------------------------| 
|---------------------------------------------------------------------------| 
|---------------------------------------------------------------------------| 
|---------------------------------------------------------------------------| 

|-13----13-------13-13----13------------------------------------------------| 
|-16b18----16b18----16b18-16b18---------------------------------------------| 
|---------------------------------And-than-go-back-to-the-main-guitar-line--| 
|---------------------------------------------------------------------------| 
|---------------------------------------------------------------------------| 
|---------------------------------------------------------------------------|
Comments