Screeching Weasel - Hanging Around Chords & Tabs

 

Hanging Around Chords & Tabs

Screeching Weasel Chords & Tabs

Version: 1 Type: Tab 0 ratings
1 star 2 stars 3 stars 4 stars 5 stars
comments

Hanging Around Tab

   
"hanging around"
By: screeching weasel
Album: wiggle

rythm guitar
  E:-------------------|
  B:-------------------|
A)G:-------------------|
  D:77777-6-5-4--------|
  A:77777-6-5-4--------|
  E:55555-4-3-2--------|


  E:---------------------------------------------------------------------|
  B:---------------------------------------------------------------------|
B)G:-----------------4444444444444444----------77777777------------------|
  D:7777777777777777 4444444444444444-55555555-77777777-7777777777777777-|
  A:7777777777777777-2222222222222222-55555555-55555555-7777777777777777-|
  E:5555555555555555------------------33333333----------5555555555555555-|


  E:-------------------------------------------------------|
  B:-------------------------------------------------------|
C)G:-----------------------9999999999999999----------------|
  D:55555555 77777777------9999999999999999----------------|
  A:55555555 77777777-(X3)-7777777777777777----------------|
  E:33333333 55555555--------------------------------------|

[ Tab from: http://www.guitartabs.cc/tabs/s/screeching_weasel/hanging_around_tab.html ]
  E:--------------------------------------------------------------------|
  B:--------------------------------------------------------------------|
D)G:-----------------7777777777777777------------------7777777777777777-|
  D:7777777777777777-7777777777777777-5555555555555555-7777777777777777-|
  A:7777777777777777-5555555555555555-5555555555555555-5555555555555555-|
  E:5555555555555555------------------3333333333333333------------------|

  E:--------------------------------------------------------------------|
  B:--------------------------------------------------------------------|
E)G:-----------------4444444444444444------------------7777777777777777-|
  D:7777777777777777-4444444444444444-5555555555555555-7777777777777777-|
  A:7777777777777777-2222222222222222-5555555555555555-5555555555555555-|
  E:5555555555555555------------------3333333333333333------------------|

  guitar solos

  E:-----------------55555-4-3-2-(x4)------------------------|
  B:---------------------------------------------------------|
  G:---------------------------------------------------------| durring A
  D:77777-6-5-4-(X4)---------------------7-(as needed)-------|
  A:---------------------------------------------------------|
  E:---------------------------------------------------------|

  E:--------------------------------------------------------|
  B:--------------------------------------------------------|
  G:--------------------------------------------------------| durring E
  D:9-7(X16)-9-7-9-12-11-9-7--------------------------------|
  A:--------------------------------------------------------|
  E:--------------------------------------------------------|


  A X17
  B X3
  C X1
  B X2
  C X1
  D X2
  E X2
  B X2
  C X1
  D X2
  E X4
Comments