Screeching Weasel - Fathead Chords & Tabs

 

Fathead Chords & Tabs

Screeching Weasel Chords & Tabs

Version: 1 Type: Tab 0 ratings
1 star 2 stars 3 stars 4 stars 5 stars
comments

Fathead Tab

   
Screeching Weasel - Fathead
Submitted By: Chris
EMail: cwsmith@together.net
Album:Kill the Musicians (Look Out! Records)
Track:3
Lead Guitar:Ben Weasel
Rhythm Guitar:Jughead

Guitar I-Clean, Electric (Lead)
Guitar II-Medium Distortion, Electric (Rhythm)

Key:
()-ghost note
*-harmonic
b-bend

Gtr. II
Intro/Verse/Bridge:
      C5   F5     C5   A#5    C5   F5  A#5  C5
e------------------------------------------------|
b------------------------------------------------|
g----------10----------------------10------------|
D---101010-10-10-101010-8---101010-10-8-888-10---|
A---101010-8--10-101010-8---101010-8--8-888-10---|
E---8-8-8-----8--8-8-8--6---8-8-8-----6-666-8----|

Intro x2

Verse x2
[ Tab from: http://www.guitartabs.cc/tabs/s/screeching_weasel/fathead_tab.html ]
Chorus:
           Eb5                F5
e---------------------------------------------|
b---------------------------------------------|
g---8-8-8-8-8-8-8-8-10-10-10-10-10-10-10-10---|
D---8-8-8-8-8-8-8-8-10-10-10-10-10-10-10-10---|
A---6-6-6-6-6-6-6-6-8-8-8-8-8-8-8-8-8-8-8-8---|
E---------------------------------------------|

"Why don't you go away?"

Bridge x1

Verse x2

Chorus x1

Gtr. I
Fill:
          (played over Verse x2)
e-----------------------------------------|
b------------5------------------5---------|
g---5-5-5-5-5--5-5-3---5-5-5-5-5--3-3-5---|
D-----------------------------------------|
A-----------------------------------------|
E-----------------------------------------|

Fill x4

Chorus x1

Bridge x1

Verse x2

Chorus x1

Bridge x2

Gtr. II
Outro:

e-----------|
b-----------|
g---(8)b*---|
D-----------|
A-----------|
E-----------|

That's it.  I'm not totally positive about the fill but
if you're not satisfied with it just make any changes 
needed and you're free to re-tab it(as if I could stop
you).  Have fun.
Comments