Screeching Weasel - Dont Turn Out The Lights Chords & Tabs

 

Dont Turn Out The Lights Chords & Tabs

Screeching Weasel Chords & Tabs

Version: 1 Type: Tab 0 ratings
1 star 2 stars 3 stars 4 stars 5 stars
comments

Dont Turn Out The Lights Tab

-------------------------------------------------------------------------------
Screeching Weasel - Don't Turn Out the Lights (from Happy, Horny, Gay)
-------------------------------------------------------------------------------

Tabbed by: Kai Bart (kaibartolobro@excite.com)


All the parts of the song are there. Listen to it to get the exact rhythm
and order. Sweet.

Part 1
e|-----------------------------------------------------|
B|-----------------------------------------------------|
G|----------7------------------------------------------|x2
D|--5-------7------7-----------------------------------|
A|--5-------5(x8)--7-----------------------------------|
E|--3(x8)----------5(x16)------------------------------|

Part 2 (Guitar 2)
e|--0-2-3-----3-2------2-0------2-0--------------------|
B|--------3-------3--------2--------2------------------|
G|----------4-------2--------2--------2----------------|
D|-----------------------------------------------------|
A|-----------------------------------------------------|
E|-----------------------------------------------------|
Guitar 1 Plays Part 1 in Background

e|---------------------------------------------------|
B|---------------------------------------------------|
G|--------7--9---------------------------------------|
D|--7--9--7--9----5-7--------------------------------|
A|--7--9--5--7----5-7--------------------------------|
E|--5--7----------3-5(x4)----------------------------|

e|--------------------------------------------------------|
B|--------------------------------------------------------|
G|--------7--9-------------7-----------------------7------|
D|--7--9--7--9----5-7------7--7--------------------7-7----|
A|--7--9--5--7----5-7------5--7--------------------5-7----|
E|--5--7----------3-5(x4)-----5(let ring briefly)----5----|
[ Tab from: http://www.guitartabs.cc/tabs/s/screeching_weasel/dont_turn_out_the_lights_tab.html ]
Verse (Guitar 1)
e|------------------------------------------------------|
B|------------------------------------------------------|
G|----------7---------------9---------------------------|
D|--9-------7------7--------9---------------------------|
A|--9-------5(x4)--7--------7(x4)-----------------------|
E|--7(X4)----------5(x4)--------------------------------|

Verse (Guitar 2--heard in the background at the beginning)
e|--0-0-----0--------------0-0-----0------------------------|
B|-------3----3-----------------3-----3---------------------|
G|---------------4---2-------------------4---2--------------|
D|----------------------------------------------------------|
A|----------------------------------------------------------|
E|----------------------------------------------------------|

Leading Into Chorus ("You never listen...")
e|------------------------------------------------------|
B|------------------------------------------------------|
G|----------7-------------------------------------------|
D|--5-------7--7------------------------9---------------|
A|--5-------5--7------------------------9---------------|
E|--3(x8)------5(x8)---Quick slide to---7---------------|

e|-------------------------------------------------------|
B|-------------------------------------------------------|
G|----------7--------------------------------------------|
D|--5-------7--7------------------------9----------------|
A|--5-------5--7------------------------9----------------|
E|--3(x8)------5(x8)---Quick slide to---7----------------|

Chorus ("Don't turn out the...")("Liiiiiiights...")
e|-----------------------------------|
B|-----------------------------------|
G|-------7---------------------------|
D|--5----7---7-----------------------|
A|--5----5---7-----------------------|
E|--3--------5-----------------------|

The "Say you care" part
Guitar 1
e|------------------------------|
B|------------------------------|
G|----------7-------------------|
D|--5-------7-----7-------------|
A|--5-------5(x8)-7-------------|
E|--3(x8)---------5(x16)--------|

Guitar 2 (comes in a little later
e|--0-2-3-----3-2------2-0------2-0-------------------------|
B|--------3-------3--------2--------2-----------------------|
G|----------4-------2--------2--------2---------------------|
D|----------------------------------------------------------|
A|----------------------------------------------------------|
E|----------------------------------------------------------|
Guitar 1 Plays Part 1 in Background
Comments