Screeching Weasel - Dingbat Chords & Tabs

 

Dingbat Chords & Tabs

Screeching Weasel Chords & Tabs

Version: 1 Type: Bass Tab 0 ratings
1 star 2 stars 3 stars 4 stars 5 stars
comments

Dingbat Bass Tab

-------------------------------------------------------------------------------
			     Dingbat - screeching weasel
-------------------------------------------------------------------------------

By:christopher taylor
[ Tab from: http://www.guitartabs.cc/tabs/s/screeching_weasel/dingbat_btab.html ]
intro
G|---------------------------------------------------------------------------|
D|---------------------------------------------------------------------------|
A|----5-5-5-5----------------------------------------------------------------|
E|---------------------------------------------------------------------------|
verse
G|---------------------------------------------------------------------------|
D|---------------------------------------------------------------------------|
A|----------6-6-6-6-------5-5-5-5--------------------------------------------|
E|---3-3-3-3-------6-6-6-6---------------------------------------------------|
chorus
G|---------------------------------------------------------------------------|
D|---------------------------------------------------------------------------|
A|----4-4-4-4-5-5-5-5-0-0-0-0-7-7-7-7----------------------------------------|
E|--------------------------------------------------------------------------|


===============================================================================

Comments