Screeching Weasel - Cool Kids Chords & Tabs

 

Cool Kids Chords & Tabs

Screeching Weasel Chords & Tabs

Version: 1 Type: Tab 0 ratings
1 star 2 stars 3 stars 4 stars 5 stars
comments

Cool Kids Tab

E|------------------------------------------------------------------------- 
B|------------------------------------------------------------------------- 
G|-----------------------------------5-555555555555555--------------------- 
D|-5-5555555555555555555555555555555-5-555555555555555-5-555555555555555--- 
A|-5-5555555555555555555555555555555-3-333333333333333-5-555555555555555--- 
E|-3-3333333333333333333333333333333-------------------3-333333333333333--- 

E|-----------------------------------------| 
B|-----------------------------------------| 
G|-7-7777777--5-5555555------------7777777-| 
D|-7-7777777--5-5555555--5-5555555-7777777-| 
A|-5-5555555--3-3333333--5-5555555-5555555-| 
E|-----------------------3-3333333---------| 


Riff: 
e|---------------10-8-------------------------| 
B|-8---10---12----------10-h12-p10-h12-p10-8--| x 6 
G|--------------------------------------------| 
D|--------------------------------------------| 
A|--------------------------------------------| 
E|--------------------------------------------| 
[ Tab from: http://www.guitartabs.cc/tabs/s/screeching_weasel/cool_kids_tab.html ]
Second solo: repeat riff 6x then play this 
e|--------------10---------------------| 
B|8---10---12------8---8-10---12---15--| 
G|-------------------------------------| 
D|-------------------------------------| 
A|-------------------------------------| 
E|-------------------------------------| 

e|--------------10---------------------| 
B|8---10---12------8---8-10---12---15--| 
G|-------------------------------------| 
D|-------------------------------------| 
A|-------------------------------------| 
E|-------------------------------------| 

e|10---10---10---8-h10-------------------------| 
B|-----------------------10-h12-p10-h12-p10-8--| 
G|---------------------------------------------| 
D|---------------------------------------------| 
A|---------------------------------------------| 
E|---------------------------------------------| 

e|--------------10---------------------| 
B|8---10---12------8---8-10---12---15--| 
G|-------------------------------------| 
D|-------------------------------------| 
A|-------------------------------------| 
E|-------------------------------------| 

e|10---10-p8------10---8---x-x-x-----8| 
B|-----------10------------------8----|
G|-------------------------------------| 
D|-------------------------------------| 
A|-------------------------------------| 
E|-------------------------------------|  

e|----------------10-----10-10-10-10--| 
B|--8---10---12------8----------------| 
G|------------------------------------| 
D|------------------------------------| 
A|------------------------------------| 
E|------------------------------------|
Comments