Screeching Weasel - Celena Chords & Tabs

 

Celena Chords & Tabs

Screeching Weasel Chords & Tabs

Version: 1 Type: Tab 0 ratings
1 star 2 stars 3 stars 4 stars 5 stars
comments

Celena Tab

----------------------------------------------------------------------------------------------------------------------
                    CELENA - Screeching Weasel
----------------------------------------------------------------------------------------------------------------------

By:Paolo Simonato (simonato@cyberbeach.net)

[ Tab from: http://www.guitartabs.cc/tabs/s/screeching_weasel/celena_tab.html ]
          guitar intro
|-----------------------------------------------------------------------|
|-----------------------------------------------------------------------|              bass
|----------------5-------7---|------------------------------------------|
|-------5------5---5---7---7-|------------------------------------------|
|-----5---5--3-------5-------|----3--5--3/5\3--|--7--5--3----3----------|
|---3------------------------|--3---------------|-----------3-----------|
Comments