Screeching Weasel - Bottom Of The 9th Chords & Tabs

 

Bottom Of The 9th Chords & Tabs

Screeching Weasel Chords & Tabs

Version: 1 Type: Bass Tab 0 ratings
1 star 2 stars 3 stars 4 stars 5 stars
comments

Bottom Of The 9th Bass Tab

Bottom Of The 9th

Intro        Verse 1, 2
   (drums)
| |--------||-----------------|----------------|----------------|----------------|----------------|
|4|.------.||.----------------|----------------|----------------|----------------|----------------|
|4|.-rest-.||.----------------|----------------|-5--5-5-5-5-5-5-|----------------|----------------|
| |--------||--5--5-5-5-5-5-5-|-5--5-5-5-5-5-5-|----------------|-5--5-5-5-5-5-5-|-5--5-5-5-5-5-5-|


|-----------------|-----------------|-----------------|----------------|----------------|
|-----------------|-----6-6-7-7-8-8-|-9-9-8-8-7-7-6-6-|----------------|----------------|
|--5--5-5-5-5-5-5-|-7-7-------------|-----------------|----------------|----------------|
|-----------------|-----------------|-----------------|-5--5-5-5-5-5-5-|-5--5-5-5-5-5-5-|
[ Tab from: http://www.guitartabs.cc/tabs/s/screeching_weasel/bottom_of_the_9th_btab.html ]
                                                                                       _________
                                                                                      |1.
|-----------------|----------------|----------------|----------------|----------------|---------||
|-----------------|----------------|----------------|----------------|----------------|--------.||
|--5--5-5-5-5-5-5-|----------------|-2--2-2-2-2-2-2-|----------------|-5--5-5-5-5-5-5-|-5------.||
|-----------------|-5--5-5-5-5-5-5-|----------------|-3--3-3-3-3-3-3-|----------------|---------||

 _________________
|2.                 Pre-Chorus         Chorus                                             
|-----------------||-------|-------||------------------|----------------|----------------|
|-----------------||-------|-------||.-----------------|----------------|----------------|
|--5--5-5-5-5-5-5-||------rest-----||.-----------------|----------------|-5--5-5-5-5-5-5-|
|-----------------||-------|-------||---5--5-5-5-5-5-5-|-3--3-3-3-3-3-3-|----------------|

                  x4
|-------------------||
|------------------.||
|--5--5-5-5-5-5-5--.||
|-------------------||
Comments