Screeching Weasel - Blitzkrieg Bop Chords & Tabs

 

Blitzkrieg Bop Chords & Tabs

Screeching Weasel Chords & Tabs

Version: 1 Type: Tab 0 ratings
1 star 2 stars 3 stars 4 stars 5 stars
comments

Blitzkrieg Bop Tab

   
SCREECHING WEASEL
Ramones Cover - Blitzkrieg Bop
Submitted By: Chris
EMail: cwsmith@together.net

Tuning - Standard (E A D g b E)

Note: This song is SO SIMPLE and I'm amazed that no one
else was able to tab it correctly.  Here's the right tab...
Classic punk song.  Four Chords.

0:00

Intro/Verse:

Gtr. 1 w/ distortion

          A5          D5    E5     *   A5   D5       A5
                                   *
                              
e----------------------------------|------------------------|
b----------------------------------|------------------------|
g-------------------7-7-7-9--9-9---|-------7-7-7------------|
D---7-7-7-7-7-7-7-7-7-7-7-9--9-9---|---7-7-7-7-7-7--7-7-7---|
A---7-7-7-7-7-7-7-7-5-5-5-7--7-7---|---7-7-5-5-5-7--7-7-7---|
E---5-5-5-5-5-5-5-5----------------|---5-5-------5--5-5-5---|

* replace bar 1 w/ bar 2 on fourth repetition of verse

Break:

"Hey! Ho! Let's go!"
"Hey! Ho! Let's go!..."

Bass re-enters...

0:30

Interlude/Outro:

Gtr. 1

                   A5

[ Tab from: http://www.guitartabs.cc/tabs/s/screeching_weasel/blitzkrieg_bop_tab.html ]
e-------------------------------------|
b-------------------------------------|
g-------------------------------------|
D---7-7-7-7-7-7-7-7-7-7-7-7-7-7-7-7---|
A---7-7-7-7-7-7-7-7-7-7-7-7-7-7-7-7---|
E---5-5-5-5-5-5-5-5-5-5-5-5-5-5-5-5---|

0:54

Bridge:

Gtr. 1

                 D5                               A5


e---------------------------------------------------------------------|
b---------------------------------------------------------------------|
g---7-7-7-7-7-7-7-7-7-7-7-7-7-7-7-7-----------------------------------|
D---7-7-7-7-7-7-7-7-7-7-7-7-7-7-7-7-7-7-7-7-7-7-7-7-7-7-7-7-7-7-7-7---|
A---5-5-5-5-5-5-5-5-5-5-5-5-5-5-5-5-7-7-7-7-7-7-7-7-7-7-7-7-7-7-7-7---|
E-----------------------------------5-5-5-5-5-5-5-5-5-5-5-5-5-5-5-5---|

(continued)

                 D5                       B5          D5     E5
 

e--------------------------------------------------------------------|
b--------------------------------------------------------------------|
g---7-7-7-7-7-7-7-7-7-7-7-7-7-7-7-7-----------------7-7-7-9--9-9-9---|
D---7-7-7-7-7-7-7-7-7-7-7-7-7-7-7-7-9-9-9-9-9-9-9-9-7-7-7-9--9-9-9---|
A---5-5-5-5-5-5-5-5-5-5-5-5-5-5-5-5-9-9-9-9-9-9-9-9-5-5-5-7--7-7-7---|
E-----------------------------------7-7-7-7-7-7-7-7------------------|

Order:

Intro...
Break...(no guitar)
Interlude...
Verse x2
Bridge...
Verse x2
Bridge...
Verse x2
Break...(no guitar)
Outro...

(Interlude/Outro)
Hey! Ho! Let's go!...

(Verse)
They're formin' in a straight line...

(Bridge)
Hey, Ho, Let's go
Shoot 'em in the back now!...
Comments