Screeching Weasel - A New Tomorrow Chords & Tabs

 

A New Tomorrow Chords & Tabs

Screeching Weasel Chords & Tabs

Version: 1 Type: Tab 0 ratings
1 star 2 stars 3 stars 4 stars 5 stars
comments

A New Tomorrow Tab

Screeching Weasel - A New Tomorrow
Submitted By: Craig
EMail: borderpunk3@yahoo.comINTRO/VERSE (PLAYED 6 TIMES TOTAL)
     Pm       Pm
E|--0𥥧2-
B|--0𥹐3-
G|--1𦌼2-
D|--2𦠨0-
A|--2𥥦------
E|--0--------3-------

CHORUS
E|--0𦠪𥥤𦠪0--
B|--0𥥧𥹐𥥧1--
G|--1𥥦𥥥𥥦0--
D|--2𥥤𦌾𥥤2--
A|--22-------3---2----2------3--
E|--03------------0----3---------

2ND VERSE (REPEAT 4 TIMES)
     Pm       Pm
E|--0𥥧2--
B|--0𥹐3--
G|--1𥥤2--
D|--2𦌼0--
A|--2𦠪------
E|--0--------3-----

GHORUS
E|--0𦠪𥥤𦠪0--
B|--0𥥧𥹐𥥧1--
G|--1𥥦𥥥𥥦0--
D|--2𥥤𦌾𥥤2--
A|--22-------3---2----2------3--
E|--03------------0----3---------
[ Tab from: http://www.guitartabs.cc/tabs/s/screeching_weasel/a_new_tomorrow_tab.html ]
REPEAT UNTIL END W/ LEAD RIFFS
     Pm       Pm
E|--0𥥧2--
B|--0𥹐3--
G|--1𥥤2--
D|--2𦌼0--
A|--2𦠪------
E|--0--------3-----

LEAD RIFF A (PLAYED 4 TIMES TOTAL)
E|--0---3-5-3--2-----2------3-5-3--2-----2-
B|----------------3-----0-------------3--------
G|---------------------------------------------
D|---------------------------------------------
A|---------------------------------------------
E|---------------------------------------------

LEAD RIFF B (PLAY UNTIL SONG FADES OUT)
E|--7-7-7-7-7-7-7-7-5---5---------7-8-7-5---5---
B|--------------------8----8-8--8---------8-----------
G|------------------------------------------------------
D|------------------------------------------------------
A|-----------------------------------------------------
E|-----------------------------------------------------
Comments