Screeching Weasel - 99 Chords & Tabs

 

99 Chords & Tabs

Screeching Weasel Chords & Tabs

Version: 1 Type: Tab 0 ratings
1 star 2 stars 3 stars 4 stars 5 stars
comments

99 Tab

Song: 99
Band: Screeching Weasel
Album: How to make enemies and irritate people


*: palm mute

Riff 1:  ---------------         Riff 2:  --------------|
         ---------------                  --------------|
         ------------6--                  -----------6--|
         --6-6*------6--                  --6-----3--6--|
         --6-6-------4--   x4             --6-----3--4--| x2
         --4-4----------                  --4-----1-----|


Riff 3:  --------------------------|
         --------------------------|
         -----6-----6-----6-----8--|
         --6--6--6--6--6--6--6--8--|
         --6--4--6--4--6--4--6--6--|  x1
         --4-----4-----4-----4-----|

  (Riff 2)  x2
  (Riff 3)  x1


Then:  --------------------------------------|
       --------------------------------------|
       ---------------6--------------6-------|
       --6----5-3-----6----6----3----6----6--|
       --6----5-3-----4----6----3----4----6--|
       --4----3-1----------4----1---------4--|

[ Tab from: http://www.guitartabs.cc/tabs/s/screeching_weasel/99_tab.html ]
       --------------------------------------|
       --------------------------------------|
       ---------------6--------------6-------|
       --6----5-3-----6----6----3----6----8--|
       --6----5-3-----4----6----3----4----8--|
       --4----3-1----------4----1---------6--|

Solo:
     (Play solo over "Riff 3" x2)

     ---------------------------------------------------            ---|
     ---------------------------------------------------            ---|
     ----6-5---6-5---6-5---6-5---6-5---6-5---6-5---6-5--            ---|
     --6-----6-----6-----6-----6-----6-----6------------            -6-|
     --------------------------------------------6------ x2 end on  ---|
     ---------------------------------------------------            ---|

(Riff 1) x4
(Riff 2) x2
(Riff 3) x1

Outro:   -----------------                  ---|
         -----------------                  ---|
         ------6-------8--                  ---|
         --6---6---6---8--                  -6-|
         --6---4---6---6--  x4      end on  -6-|
         --4-------4------                  -4-|
Comments