Screaming Females - Normal Chords & Tabs

 

Normal Chords & Tabs

Screaming Females Chords & Tabs

Version: 1 Type: Bass Tab 0 ratings
1 star 2 stars 3 stars 4 stars 5 stars
comments

Normal Bass Tab

   
Screaming Females
"Normal"
transcribed by: Josef Warner-Reyes
bass cover video: https://www.youtube.com/watch?v=ds3Hlk3nmRg
the chorus isn't exact, from what i can hear their bassist plays some variation of the 
intro for the first 1st bar. im not 100% sure so i dumbed it down for simplicity's sake.

                             intro
     H        E  E  E   E       Q    E  E  Q    E   E  11x
G||------------------------||---------------------------||
D||------------------------||*-------------------------*||
A||------------------------||*-------5----------5------*||
E||-----------------2s--L--||---7-------7--3-------/3---||

transition                  verse
  E  E  E  E  E  E  E  E       E  E  E  E  E  E  E  E
--------------------------||---------------------------|
--------------------------||*--------------------------|
--------------------------||*--------------------------|
--7--7--7--7-----7--7-----||---7--L-----7--7--L-----7--|


  E  E  E  E  E    E  E  E      E  E  E   E   E  E  E   E
----------------------------|------------------------------|
----------------------------|------------------------------|
--------------9s--11--9--L--|------------------------------|
-----7-----7----------------|--10--L-----10--10--L-----10--|

                                 chorus
  E   E  E   E   E  E  E  E   6x   E  E  E  E  E  E  E  E
------------------------------||---------------------------|
-----------------------------*||*--------------------------|
--------------------9--9--L--*||*--------------------------|
-----10-----10--10------------||---7--7--7--7--7--7--7--7--|


  E  E  E  E  E  E  E  E     E  E  E  E  E  E  E  E
--------------------------|--------------------------|
--------------------------|--------------------------|
--------------------------|--------------------------|
--3--3--3--3--3--3--3--3--|--5--5--5--5--5--5--5--5--|


  E  E  E  E  E  E  E  E     E  E  E  E  E  E  E  E
--------------------------|--------------------------|
--------------------------|--------------------------|
--------------------------|--------------------------|
--3--3--3--3--3--3--3--3--|--7--7--7--7--7--7--7--7--|


                             |--------3--------|
  E  E  E  E  E  E  E  E     H        H        H
--------------------------|-----------------------------|
--------------------------|-----------------------------|
--------------------------|-----------7-----------------|
--3--3--3--3--3--3--3--3--|--5-----------------5--------|


  |--------3--------|           verse
  H        H        H              E  E  E  E  E  E  E  E
------------------------------||---------------------------|
-----------------------------*||*--------------------------|
-----------5-----------------*||*--------------------------|
--3-----------------3---------||---7--L-----7--7--L-----7--|


  E  E  E  E  E    E  E  E      E  E  E   E   E  E  E   E
----------------------------|------------------------------|
----------------------------|------------------------------|
--------------9s--11--9--L--|------------------------------|
-----7-----7----------------|--10--L-----10--10--L-----10--|

                                chorus
  E   E  E   E   E  E  E  E   4x   E  E  E  E  E  E  E  E
------------------------------||---------------------------|
-----------------------------*||*--------------------------|
--------------------9--9--L--*||*--------------------------|
-----10-----10--10------------||---7--7--7--7--7--7--7--7--|


  E  E  E  E  E  E  E  E     E  E  E  E  E  E  E  E
--------------------------|--------------------------|
--------------------------|--------------------------|
--------------------------|--------------------------|
--3--3--3--3--3--3--3--3--|--5--5--5--5--5--5--5--5--|


  E  E  E  E  E  E  E  E     E  E  E  E  E  E  E  E
--------------------------|--------------------------|
--------------------------|--------------------------|
--------------------------|--------------------------|
--3--3--3--3--3--3--3--3--|--7--7--7--7--7--7--7--7--|


                             |--------3--------|
  E  E  E  E  E  E  E  E     H        H        H
--------------------------|-----------------------------|
--------------------------|-----------------------------|
--------------------------|-----------7-----------------|
--3--3--3--3--3--3--3--3--|--5-----------------5--------|

[ Tab from: http://www.guitartabs.cc/tabs/s/screaming_females/normal_btab.html ]
  |--------3--------|             bridge
  H        H        H              E  E  E  E  E  E  E  E
------------------------------||---------------------------|
-----------------------------*||*--------------------------|
-----------5-----------------*||*--2--2--2--2--2--2--2--2--|
--3-----------------3---------||---------------------------|


  E  E  E  E  E  E  E  E     E  E  E  E  E  E  E  E
--------------------------|--------------------------|
--------------------------|--------------------------|
--2--2--2--2--2--2--2--2--|--5--5--5--5--5--5--5--5--|
--------------------------|--------------------------|


  E  E  E  E  E  E  E  E     E  E  E  E  E  E  E  E
--------------------------|--------------------------|
--------------------------|--7--7--7--7--7--7--7--7--|
--5--5--5--5--5--5--5--5--|--------------------------|
--------------------------|--------------------------|


  E  E  E  E  E  E  E  E     E  E  E  E  E  E  E  E
--------------------------|--------------------------|
--7--7--7--7--7--7--7--7--|--5--5--5--5--5--5--5--5--|
--------------------------|--------------------------|
--------------------------|--------------------------|


  E  E  E  E  E  E  E  E   3x  E  E  E  E  E  E  E  E
---------------------------||-----------------7--------|
--------------------------*||--9--9--9--7--9-----9--7--|
--0--0--0--0--0--0--0--0--*||--------------------------|
---------------------------||--------------------------|


  E  E  E  E  E  E  E  E     E  E  E  E  E  E  E  E
-----------------7--------|-----------------7-----7--|
--9--9--9--7--9-----9--7--|--9--9--9--7--9-----9-----|
--------------------------|--------------------------|
--------------------------|--------------------------|


  E  E  E  E  E  E  E  E     E  E  E  E  E  E  E  E
--9--9--9--9--9--7--------|-----------------7--------|
--------------------9--7--|--9--9--9--7--9-----9--7--|
--------------------------|--------------------------|
--------------------------|--------------------------|


                             |--------3--------|
  E  E  E  E  E  E  E  E     H        H        H
-----------------7--------|-----------9-----------------|
--9--9--9--7--9-----9--7--|--7-----------------7--------|
--------------------------|-----------------------------|
--------------------------|-----------------------------|


  |--------3--------|          chorus
  H        H        H             E  E  E  E  E  E  E  E
-----------7-----------------||---------------------------|
--5-----------------5--------||*--------------------------|
-----------------------------||*--------------------------|
-----------------------------||---7--7--7--7--7--7--7--7--|


  E  E  E  E  E  E  E  E     E  E  E  E  E  E  E  E
--------------------------|--------------------------|
--------------------------|--------------------------|
--------------------------|--------------------------|
--3--3--3--3--3--3--3--3--|--5--5--5--5--5--5--5--5--|


  E  E  E  E  E  E  E  E     E  E  E  E  E  E  E  E
--------------------------|--------------------------|
--------------------------|--------------------------|
--------------------------|--------------------------|
--3--3--3--3--3--3--3--3--|--7--7--7--7--7--7--7--7--|


                             |--------3--------|
  E  E  E  E  E  E  E  E     H        H        H
--------------------------|-----------------------------|
--------------------------|-----------------------------|
--------------------------|-----------7-----------------|
--3--3--3--3--3--3--3--3--|--5-----------------5--------|


  |--------3--------|           outro
  H        H        H              Q    E  E  Q    E   E   3x
------------------------------||---------------------------||
-----------------------------*||*-------------------------*||
-----------5-----------------*||*-------5----------5------*||
--3-----------------3---------||---7-------7--3-------/3---||


  E  E  E  E  H
-----------------------|-----------||
-----------------------|-----------||
-----------------------|-----------||
--7--7--7--7-----------|-----------||




Duration Legend
---------------
W - whole
H - half
Q - quarter
E - 8th
S - 16th
T - 32nd
X - 64th
. - note dotted
|-n-|  - n-tuplets


Tablature Legend
----------------
L - tied note
x - dead note
g - grace note
(n) - ghost note
> - accentuded note
NH - natural harmonic
AH - artificial harmonic
TH - tapped harmonic
SH - semi harmonic
PH - pitch harmonic
h - hammer on
p - pull off
b - bend
br - bendRelease
pb - preBend
pbr - preBendRelease
brb - bendReleaseBend
\n/ - tremolo bar dip
\n - tremolo bar dive
-/n - tremolo bar Release up
/n\ - tremolo bar inverted dip
/n - tremolo bar return
-\n - tremolo bar Release down
S - shift slide
s - legato slide
/ -  slide into from below or out of upwards
\ -  slide into from above or out of downwards
~ - vibrato
W - wide vibrato
tr - trill
TP - tremolo picking
T - tapping
S - slap
P - pop
< - fade in
^ - brush up
v - brush down
Comments