Scratching Post - Bloodflame Chords & Tabs

 

Bloodflame Chords & Tabs

Scratching Post Chords & Tabs

Version: 1 Type: Tab 0 ratings
1 star 2 stars 3 stars 4 stars 5 stars
comments

Bloodflame Tab

   
                   "Bloodflame" by Scratching Post  
                          Tabbed by Frankie  
 
OK here is my first stab at this song.  I plan on doing  
a more detailed version of this song including lyrics  
pretty soon.  Its a very easy song but great none the less.  
Canadian Bands Rawk!!!!  If you have any comments, questions,  
or corrections please email me at fppenney@yahoo.com.  
 
Have fun and kiss your guitars goodnight!  
 
chords used in this song  
 
   F#5    A5    D5    B5  
e|-----|-----|-----|-----|  
B|-----|-----|-----|-----|  
G|-----|-----|-----|-----|  
D|--4--|--7--|--12-|--9--|  
A|--4--|--7--|--12-|--9--|  
E|--2--|--5--|--10-|--7--|  
 
 
[VERSE 1]  
Guitar 1 plays the chords muted. Strum each chord 8 times.  
Guitar 2 comes in on the third time through the chords  
and strums each chord once and lets it ring.   
 
    F#5     A5       D5       B5  
e|------|--------|--------|---------|  
B|------|--------|--------|---------|  
G|------|--------|--------|---------|  
D|--x---|----x---|----x---|----x----|  
A|--x---|----x---|----x---|----x----|  
E|--x---|----x---|----x---|----x----|  
    8X       8X       8X       8X  
 
The last B5 in each verse is played 14 times instead of 8  
by both guitars.  
 
[CHORUS]  
Can be played by both guitars.  
 
{Chorus Riff}  
  F#5  A5  D5      F#5  A5  D5  
e|---------------------------------------|  
B|---------------------------------------|  
G|---------------------------------------|  
D|--4--7--12-12-12--4---7---12-12-12-12--|  
A|--4--7--12-12-12--4---7---12-12-12-12--|  
E|--2--5--10-10-10--2---5---10-10-10-10--|Play this 4 X  
 
 
[VERSE 2]  
Played same as first verse  
 
[CHORUS]  
{chorus riff 4 times}  
 
[BRIDGE]  
 
Guitar 1  
    F#5       
e|-------------------------------|  
B|-------------------------------|  
G|-------------------------------|  
D|--x-x-x---x-x-x---xxxxxxx4-----|  
A|--x-x-x---x-x-x---xxxxxxx4-----|  
E|--x-x-x---x-x-x---xxxxxxx2-----|  
 
Play the bridge 4 times and then go straight  
into the music for the chorus.  
 
[VERSE 3]  
 
On the first two lines of this verse strum the chords  
once and let them ring.  The last two lines just play  
the muted strings except for the last B5 (strum 14 times)  
 
   F#5   A5   D5    B5  
e|--------------------|  
B|--------------------|  
G|--------------------|  
D|--4----7----12---9--|  
A|--4----7----12---9--|  
E|--2----5----10---7--|  
 
[CHORUS]  
{chorus riff 4 times}  
After this chorus there is another bridge or interlude type thingie.  
 
    D5    B5  
e|------------|  
B|------------|  
G|------------|  
D|--12----9---|  
A|--12----9---|  
E|--10----7---|  
   15X   15X  
 
{Then play chorus riff twice}  
 
    D5    B5  
e|------------|  
B|------------|  
G|------------|  
D|--12----9---|  
A|--12----9---|  
E|--10----7---|  
   15X   15X  
 
{Then play chorus riff 4 times to end.}
[ Tab from: http://www.guitartabs.cc/tabs/s/scratching_post/bloodflame_tab.html ]
Comments