Scratch Acid - Scale Song Chords & Tabs

 

Scale Song Chords & Tabs

Scratch Acid Chords & Tabs

Version: 1 Type: Tab 0 ratings
1 star 2 stars 3 stars 4 stars 5 stars
comments

Scale Song Tab

Same person who submitted the other tab of this song. That tab was 
wack! This one is better.

Scale Song (low to high) (this song is available 
on the Greatest Gift cd)

Bass:

chorus:

---------------------------------------------
---------------------------------------------
---------------------------------------------
-2-2-2-2-2-2-2-2-1-1-1-1-1-1-1-1-4-4-4-4-4-4-

---------------------------------------------
---------------------------------------------
---------------------------------------------
-4-4-/12-12-12-12-12-12-12-12--5-5-5-5-5-5-5-

---------------------------------------------
---------------------------------------------
---------------------------------------------
-5-5-4-4-4-4-4-4-4-4-7-7-7-7-7-7-7-7-/12-12--

----------------
----------------
----------------
-12-12-12-12-12-

verse:

---------------------------------------------
---------------------------------------------
---------------------------------------------
-7-7-7-7-7-7-7--5-5-5-5-5-5-5--3-3-3-3-3-3-3-

----------------
----------------
----------------
-0-0-0-0-0-0-0--

Near the end of the song, the verse riff is played 
with a varied rhythm:

---------------------------------------------
---------------------------------------------
---------------------------------------------
-7-7--7-7-7-7-7--5-5--5-5-5-5-5--3-3--3-3-3--
[ Tab from: http://www.guitartabs.cc/tabs/s/scratch_acid/scale_song_tab.html ]
---------------------
---------------------
---------------------
-3-3--0-0-0-0-0-0-0--

The song ends with riff A, bending those high E notes when coming to 
the song's completion.

Guitar:

During the chorus, the guitar just follows the bass with powerchords. During the verses one guitar is playing along with the bass with just single notes. Another guitar plays this basic riff with lots of variations and wild picking (listen to the song):

-------------
-12-11-10----
----------9--
-------------
-------------
-------------

after a while it slides up

--------------------------------------------
--/15--15-15--15-15-15-/17--17-17--17-17-17-
--------------------------------------------
--------------------------------------------
--------------------------------------------
--------------------------------------------

--------------------------------------------
-12--12-12--12-12-12--12-11-10--------------
-------------------------------9------------
--------------------------------------------
--------------------------------------------
--------------------------------------------

At some point there's a long bend on the 11th fret of the G string. 
All these Scratch Acid tabs are by the same fellow (me) so if you'd 
like to say something to me, offer corrections, or if you have Scratch
Acid tabs that you'd like me to submit if you're too lazy to do it
yourself, e-mail me at saten@cheerful.com. Enjoy!
Comments