Scratch Acid - Greatest Gift Chords & Tabs

 

Greatest Gift Chords & Tabs

Scratch Acid Chords & Tabs

Version: 1 Type: Tab 0 ratings
1 star 2 stars 3 stars 4 stars 5 stars
comments

Greatest Gift Tab

   
Greatest Gift (low to high)

-------------
-------------
-------------
-------------
----2--1--0--
-3-----------play 6x, it speeds up gradually. Play one more G before going into verse.

Verse:

--------------------------------------
--------------------------------------
--------------------------------------
--------------------------------------
------------------------0-1-2-1--1-0--
-0-0-3--0-0-0-3--0-0-0----------------

Chorus: 

B G 

play that a few times, end with an E powerchord on the seventh fret.

Solo: 
[ Tab from: http://www.guitartabs.cc/tabs/s/scratch_acid/greatest_gift_tab.html ]
-----------
-17----12--
-16----12--
-------12--
-----------
----------- play around with those chords and make noise

then something like:

-15--------------------15---15-----------
----17-15-----15-14-12---------17-15-----
----------16-------------------------16--
-----------------------------------------
-----------------------------------------
-----------------------------------------

-15-----------------------------
----17-15-----------------------
----------16---14b-14b-14b-14b--
--------------------------------
--------------------------------
--------------------------------

end on high E powerchord. 
B=bend
Comments