Scott Stapp - Surround Me Chords & Tabs

 

Surround Me Chords & Tabs

Scott Stapp Chords & Tabs

Version: 1 Type: Tab

Surround Me Tab

well i tried my best to get the tab kind of sounds right to me,
so yeah rate this and give me comments
[ Tab from: http://www.guitartabs.cc/tabs/s/scott_stapp/surround_me_tab.html ]
INTRO
|------5------------5---------5--------5------------|
|---5---5-5------5---5-5----5--5-5---5--5-5---------|
|--7-7---7------7-7---7----6-6--6---6-6--6----------|
|-7------------7----------7--------7----------------|
|---------------------------------------------------|
|---------------------------------------------------|

|------5---------5---------3--------3---------------|
|----5--5-5----5--5-5----3--3-3---3--3-3------------|
|---7-7--7----7-7--7----5-5--5---5-5--5-------------|
|--5---------5---------5--------5-------------------|
|---------------------------------------------------|
|---------------------------------------------------|