Scott Stapp - Reach Out Chords & Tabs

 

Reach Out Chords & Tabs

Scott Stapp Chords & Tabs

Version: 2 Type: Tab

Reach Out Tab

   
============================================================================

Tabbed by : SaltyOreo17@yahoo.com
Band : Scott Stapp
Song : Reach Out
Album : The Great Divide

============================================================================
Note: 
I MIGHT tab more of this song later.
============================================================================
Legend

 /   slide up
 \   slide down
 h   hammer-on
 p   pull-off
 ~   vibrato
 *   harmonic
 x   Mute note
 ^   Whammy bar
|--| Palm Mute
============================================================================

Tuning:
(Guitar 1): eGBDAD
(Guitar 2): eBGDAD

============================================================================
Intro
============================================================================


(Guitar 1)
e|--------------------------------------------------|
B|--------------------------------------------------|
G|--5h7p5-0-7h8-5h7p5-0-7h8-5h7p5-0-7h8--5/7-7-7/8--|
D|---------------------------------------5/7-7-7/8--|
A|---------------------------------------3/5-5-5/6--|
D|--------------------------------------------------|

[ Tab from: http://www.guitartabs.cc/tabs/s/scott_stapp/reach_out_tab_ver_2.html ]
(Guitar 1)
e|--------------------------------------------------|
B|--------------------------------------------------|
G|--5h7p5-0-7h8-5h7p5-0-7h8-5h7p5-0-7h8--5/7-7-7/8--|
D|---------------------------------------5/7-7-7/8--|
A|---------------------------------------3/5-5-5/6--|
D|--------------------------------------------------|


(Guitar 1)
e|--------------------------------------------------|
B|--------------------------------------------------|
G|--5h7p5-0-7h8-5h7p5-0-7h8-5h7p5-0-7h8--5/7-7-7/8--|
D|---------------------------------------5/7-7-7/8--|
A|---------------------------------------3/5-5-5/6--|
D|--------------------------------------------------|


(Guitar 1)
e|--------------------------------|
B|--------------------------------|
G|--5h7p5-0-7h8-0-5h7p5-----------|
D|---------------------5h7p5------|
A|---------------------------7-3--|
D|--------------------------------|


(Guitar 2)
e|--------------------------------|
B|--5h8p5-------------------------|
G|--------0-7p5---5h7p7-----------|
D|---------------------5h7p5------|
A|---------------------------7-3--|
D|--------------------------------|

============================================================================

THATS ALL PLEASE RATE.