Scott Stapp - Great Divide; The Chords & Tabs

 

Great Divide; The Chords & Tabs

Scott Stapp Chords & Tabs

Version: 1 Type: Tab 2 ratings
1 star 2 stars 3 stars 4 stars 5 stars
comments

Great Divide; The Tab

Scott Stapp - The Great Divide
------------------------------

Drop D tuning.

Intro/Verse
-----------

e|----2---5-----2----2--5----2----2---2h3p2-----------2h3p2------------|
B|---3------3-----3----3--3-----3---3-------3-3-2-3-3------3-3-2-3-3---|
G|---------------------------------------------------------------------|
D|--0---0-----0--0---------0--0--------------0--------------0----------|
A|---------------------------------------------------------------------|
D|---------------------------------------------------------------------| (repeat where necessary)

(play before chorus)
e|--------------------------------------------|
G|--------------------------------------------|
G|--7/6-6-6-6--7-7-7/6-6-6-6--7-6-------------|
D|--x-x-x-x-x--x-x-x-x-x-x-x--x-x--5-5--7-7---|
A|--5/4-4-4-4--5-5-5/4-4-4-4--5-4--5-5--7-7---|
D|---------------------------------5-5--7-7---| (repeat this a few times)

Chorus
------

e|------------------------------------------------------------------|
B|------------------------------------------------------------------|
G|--7-7-7--7-6---------7-6---------7-6---------7-6--------9-7-6h7p6-|
D|--7-7-7--x-x--5-5-5--x-x--9-9-9--x-x--7-7-7--x-x--0-0-0-----------|
A|--5-5-5--5-4--5-5-5--5-4--9-9-9--5-4--7-7-7--5-4--0-0-0-----------|
D|--------------5-5-5-------9-9-9-------7-7-7-------0-0-0-----------|
                                                       p.m.

e|------------------------|
B|------------------------|
G|-------9-7-6h7p6-7~-----|
D|-0-0-0------------------|
A|-0-0-0------------------|
D|-0-0-0------------------|
[ Tab from: http://www.guitartabs.cc/tabs/s/scott_stapp/great_divide_the_tab.html ]
(play few times more)
e|----2---5-2---2----2--5----2----2---2h3p2-----------2h3p2------------|
B|---3------------3----3--3-----3---3-------3-3-2-3-3------3-3-2-3-3---|
G|---------------------------------------------------------------------|
D|--0---0-----0--0---------0--0--------------0--------------0----------|
A|---------------------------------------------------------------------|
D|---------------------------------------------------------------------|

e|--------------------------------------------|
G|--------------------------------------------|
G|--7/6-6-6-6--7-7-7/6-6-6-6--7-6-------------|
D|--x-x-x-x-x--x-x-x-x-x-x-x--x-x--5-5--7-7---|
A|--5/4-4-4-4--5-5-5/4-4-4-4--5-4--5-5--7-7---|
D|---------------------------------5-5--7-7---| (X4)

Chorus
------

e|----------------------------------------------------------------------------|
B|----------------------------------------------------------------------------|
G|--7-7-7--7-6---------7-6---------7-6---------7-6--7-7-7--7-6---------7-6----|
D|--7-7-7--x-x--5-5-5--x-x--9-9-9--x-x--7-7-7--x-x--7-7-7--x-x--5-5-5--x-x----|
A|--5-5-5--5-4--5-5-5--5-4--9-9-9--5-4--7-7-7--5-4--5-5-5--5-4--5-5-5--5-4----|
D|--------------5-5-5-------9-9-9-------7-7-7-------------------5-5-5---------|

e|----------------------------------------------------------------------------|
B|----------------------------------------------------------------------------|
G|---------7-6---------7-6-------9-7-6h7p6------9-7-6h7p6-------9-7-6h7p6-7---|
D|--9-9-9--x-x--7-7-7--x-x--0-0-0----------0-0-0----------0-0-0-----------7---|
A|--9-9-9--5-4--7-7-7--5-4--0-0-0----------0-0-0----------0-0-0-----------5---|
D|--9-9-9-------7-7-7-------0-0-0----------0-0-0----------0-0-0---------------|


(play few times)
e|--3p2p0-2---3p2p0-2---3p2p0-2--3p2p0-2--------|
B|---------3---------3---------3--------3-------|
G|----------------------------------------------|
D|----------------------------------------------|
A|----------------------------------------------|
D|----------------------------------------------|


Listen to the song and play parts at the appropriate times.
Comments