Scott Stapp - Fight Song Chords & Tabs

 

Fight Song Chords & Tabs

Scott Stapp Chords & Tabs

Version: 3 Type: Tab

Fight Song Tab

   
----------------------------------------------------------------------------
			     Fight Song - Scott Stapp
----------------------------------------------------------------------------
Tabbed 
Anderson
Email:thekid_1991@hotmail.com

Tuning: Drop D

E|--------------------------------------------------------------------------|
B|--------------------------------------------------------------------------|
G|--------------------------------------------------------------------------|
D|--0----0h5----------------------0----0h5--------7-------------------------|
A|--0----------6--5---------------0----------6-5h6--------------------------|
D|--0-----------------------------0-----------------------------------------|
[ Tab from: http://www.guitartabs.cc/tabs/s/scott_stapp/fight_song_tab_ver_3.html ]
E|--------------------------------------------------------------------------|
B|--------------------------------------------------------------------------|
G|--------------------------------------------------------------------------|
D|--0----0h5----------------------0----0h5-----9\---------------------------|
A|--0----------6--5---------------0----------6-9\---------------------------|
D|--0-----------------------------0------------9\---------------------------|

E|--------------------------------------------------------------------------|
B|--------------------------------------------------------------------------|
G|--------------------------------------------------------------------------|
D|--0----0h5----------------------0----0h5--------7*------------------------|
A|--0----------6--5---------------0----------6-5h6--------------------------|
D|--0-----------------------------0-----------------------------------------|
                              (reapaet 3x)
E|--------------------------------------------------------------------------|
B|--------------------------------------------------------------------------|
G|--------------------------------------------------------------------------|
D|--0----0h5----------------------0----0h5--------7-------------------------|
A|--0----------6--5---------------0----------6-5h6--------------------------|
D|--0-----------------------------0-----------------------------------------|


| *  pinch harmonic
| /  slide up
| \  slide down
| h  hammer-on
| p  pull-off
| ~  vibrato
| +  harmonic
| x  Mute note
============================================================================