Scott Raymond - Powerhouse Chords & Tabs

 

Powerhouse Chords & Tabs

Scott Raymond Chords & Tabs

Version: 1 Type: Tab 0 ratings
1 star 2 stars 3 stars 4 stars 5 stars
comments

Powerhouse Tab

Powerhouse - Raymond Scott
Tabbed by SpRiNgWaFfLe

You hear this song a bunch in old cartoons and stuff.
Lots of old WB cartoons. It took me forever to figure out
what the hell the name of the song was.

 Bass
e-----------------
b-----------------
g-----------------
d---2-1-4-3-0-1-2-
a-3---------------
e-----------------
[ Tab from: http://www.guitartabs.cc/tabs/s/scott_raymond/powerhouse_tab.html ]
 Melody            x3
e---3-2----1---------|-3p2p1--------- r
b-1------1---1-4-1-3-|------4-1-4--1- e
g--------------------|--------------- p
d--------------------|--------------- e
a--------------------|--------------- a
e--------------------|--------------- t

This is all I know. Play the bass part twice then the melody kicks in.
In the cartoons it usually goes to some other song after the melody
has played a couple of times.
Comments