Scott Joplin - The Entertainer Chords & Tabs

 

The Entertainer Chords & Tabs

Scott Joplin Chords & Tabs

Version: 2 Type: Tab 0 ratings
1 star 2 stars 3 stars 4 stars 5 stars
comments

The Entertainer Tab

Hi

I have discovered the entertainer on guitar and it's awsome!

Here it is!
[ Tab from: http://www.guitartabs.cc/tabs/s/scott_joplin/the_entertainer_tab_ver_2.html ]
1----------------|------------------------------------------------------|
2----------------|------------------------------------------------------|
3----------------|----7-8-9----7-9---7----------------------------------|
4---10---10---10-|-10-------10-----9---10-------------------------------|
5-7----7----7----|------------------------------------------------------|
6----------------|------------------------------------------------------|

Beginning
1---|---|---------------------------------------------------------------|
2---|---|---------------------------------------------------------------|
3---|---|---------------------------------------------------------------|
4-7-|-8-|---------------------------------------------------------------|
5-5-|-6-|---------------------------------------------------------------|
6-5-|-6-|---------------------------------------------------------------|

Thx Hope ya like it!
Comments