Scott-heron Gil - Is That Jazz Chords & Tabs

 

Is That Jazz Chords & Tabs

Scott-heron Gil Chords & Tabs

Version: 1 Type: Bass Tab 0 ratings
1 star 2 stars 3 stars 4 stars 5 stars
comments

Is That Jazz Bass Tab

Is That Jazz - Gil Scott-Heron

^ = sticato

                                                  verse riff
G|-------|----------6^8-6------------------------|----------6^8-6---------6-------------|
D|--11\--|------4h6-------4-2---6---6-5-4--------|------4h6-------4-2---6---6-5-4-------|
A|11-----|4-6-7--------------7-4--4-----------6--|4-6-7--------------7-4--------------2-|
E|-------|---------------------------------04---4|---------------------------------04---|
[ Tab from: http://www.guitartabs.cc/tabs/s/scott-heron_gil/is_that_jazz_btab.html ]
  chorus
G|------------------------|
D|------------------------|
A|------45-6---------2-34-|
E|43-0--------23-4--4-----|

This is played about 1:41 into the song right before the solo.  
G|-----------------------------6^8-6---------------------6-------------------------|
D|----------6-4----4-------4h6-------65--------------6-4---------------------------|
A|-------4-6----6----4-6-7-------------7654-------4-6--------4-6--46-7--67-9\------|
E|4-6-7-7--------4-------------------------4-6-7-7--------4-5------------------4---|

Tabbed by Achilles (blue_sincere@hotmail.com)

Comments