Scorpions - Wind Of Change Solo Intro Chords & Tabs

 

Wind Of Change Solo Intro Chords & Tabs

Scorpions Chords & Tabs

Version: 1 Type: Chords 0 ratings
1 star 2 stars 3 stars 4 stars 5 stars
comments

Wind Of Change Solo Intro Chords

#----------------------------------PLEASE NOTE---------------------------------#
#This file is the author's own work and represents their interpretation of the #
#song. You may only use this file for private study, scholarship, or research. #
#------------------------------------------------------------------------------#

Author/Artist: Scorpions
Title: Wind of Change Solo
Transcribed by: Chris Weston
Email: chrisweston505@hotmail.com

Here is the solo to Wind of Change by the Scorpions
i'm pretty sure it's right but this is my first tab so don't have a whinge if
it doesn't make sense.
if you have any comments/advise/spare cash feel free to email me at
chrisweston505@hotmail.com
thanks
weston


e|----------------------------------------------------------------------------
B|----10-12-12b14r12----10-12-12b14r12vvv-15b(17)--------12-13-12h13p12-------
G|--9-----------------9----------------------------14-14----------------14-12-
D|----------------------------------------------------------------------------
A|----------------------------------------------------------------------------
E|----------------------------------------------------------------------------
                                                                              
[ Tab from: http://www.guitartabs.cc/tabs/s/scorpions/wind_of_change_solo_intro_crd.html ]
------------------------------------------------------------------------------
---------------------------------------------------------------------------10-
12b(14)----12-9-12-12b(14)-12vvv--9-10-10b(12)-9p7h9-7b(9)-7----7vvv----/9----
-------------------------------------------------------------10---------------
------------------------------------------------------------------------------
------------------------------------------------------------------------------


---------------------12-----------/17--15-13-12h13p12-------------------------
12-12b13r12b13r12b13----12b13-12---------------------------------------/12vv--
-------------------------------------------------------14--14-17-16vvv--------
------------------------------------------------------------------------------
------------------------------------------------------------------------------
------------------------------------------------------------------------------


----------------------------------------------------------22b(24)---
13-15--/17---------------/18-15b(17)-15--19b(21)-19-17-19-----------
--------------------------------------------------------------------
-------------(12-14--12vvv)-----------------------------------------
--------------------------------------------------------------------
--------------------------------------------------------------------




Scoprpions -- Wind of change .......... 

The tab below is 100% accurate .... try it out yourself while playin the original song....
or if u have any questions or complains, mail to me at :

       fade_2_black_420@yahoo.co.uk

Intro : with picks n play slowly at album pace......

e--!---1-------0-------------0-
b--!-----3-------1-----3-----1-
g--!-------2-------2-----4---0-
d--!-0---------------------5-2-
a--!---------0---------------3-
e--!-----------------3---------

For other metallica, scorpions or megadeth's accurate tabs, inform me 
i will post them ......... at the s
Comments