Scorpions - Wind Of Change Chords & Tabs

 

Wind Of Change Chords & Tabs

Scorpions Chords & Tabs

Version: 1 Type: Bass Tab 0 ratings
1 star 2 stars 3 stars 4 stars 5 stars
comments

Wind Of Change Bass Tab

Scorpions
Wind Of Change

Standard Tuning - GDAE

   Fill		              Verse		
G|-----|------------------------|------------------------|
D|-----|------------------------|------------------------|
A|--3--|--5----3----5--------3--|--5----3----5-----------|
E|-----|---------------5--3-----|---------------5--3--1--|

Interlude		                 Fill
G|---------------------------------------|-----|
D|---------------------------------------|-----|
A|----------------------------5----------|--3--|
E|--1\10----1--1\10----5----5x-----5--3--|-----|

Verse		
G|----------------------------|---------------------------|
D|----------------------------|---------------------------|
A|--5----3----3\5----0-----3--|--5----3---3\5----0--------|
E|----------------------3-----|---------------------3-----|

Chorus	                                         Fill
G|------------------------------------------------|-----------|
D|------------------------------------------------|-----------|
A|--3--3----5--5-----3--3----5--5-----0----0------|--3----3\15|
E|------3--3----3--------3--3----3----------1--3--|-----------|

Verse					      
G|-------------------------------------------|
D|-------------------------------------------|
A|--3--3-3-3--5--5-5-5--3--3-3-3--5--5-------|
E|------------------------------------5--53--|

G|-------------------------------------------|
D|-------------------------------------------|
A|--3--3-3-3--5--5-5-5--3--3-3-3--5--5-------|
E|------------------------------------5--53--|
[ Tab from: http://www.guitartabs.cc/tabs/s/scorpions/wind_of_change_btab.html ]
Chorus			            x2	
G|------------------------------------------------|
D|------------------------------------------------|
A|--3--3----5--5-----3--3----5--5-----0----0------|
E|------3--3----3--------3--3----3----------1--3--|

Bridge
G|--------------------------------------------------|
D|--------------------------------------------------|
A|--------------------------------------------------|
E|----5-5--5-5----3-3--3-3----5-5--5-5----3-3--3-3--|

G|--------------------------------------------------------|
D|--------------------------------------------------------|
A|--3-3--3-3----5-5--5-5----------------------------------|
E|--------------------------0-0--0-0----0\12--12-12-12/1--|

Solo
G|--------------------------------------------------|
D|--------------------------------------------------|
A|--------------------------------------------------|
E|----1-1--3-3----0-0--5-5----1-1--3-3----5-5--5-5--|

G|------------------------------------------------------|
D|------------------------------------------------------|
A|--------------------------5-5--5-5--------------------|
E|--1-1--3-3----0-0--5-5----------------0-0--0-0--0\12--|

Chorus				x2
G|------------------------------------------------|
D|------------------------------------------------|
A|--3--3----5--5-----3--3----5--5-----0----0------|
E|------3--3----3--------3--3----3----------1--3--|

Outro
G|--------------------------------------|
D|--------------------------------------|
A|-------------------------------5------|
E|--1--1\10----1--1\10----5----5x-------|

This Is My First Tab. Send any correction to gada_10@yahoo.it. Thanks
By
TheBestNeo
Comments