Scorpions - White Dove Chords & Tabs

 

White Dove Chords & Tabs

Scorpions Chords & Tabs

Version: 2 Type: Chords 0 ratings
1 star 2 stars 3 stars 4 stars 5 stars
comments

White Dove Chords

   
----------------------------------------------------------------------------
			     White Dove - Scorpions
----------------------------------------------------------------------------
Tabbed by:DJ Inferno
Email:DJ_Inferno2000@hotmail.com

Tuning:e B G D A e

The intro for this song is quite easy. I'm not sure about one part though.
If you have any suggestions please mail them to me. 

Note: The chords i've included on the side in ()s are alternative chords but your
guitar need to be tuned half a step up.

Intro:

e|-0----------------------1-----1--------------------------|
B|--0--1---3-1-0---------3-----3-----3-----1-----1---------|
G|-------2-------5--2--2-----2-----2-----2-----2----2------|
D|------------------------------------2-----2----2---------|
A|---------------------------------------------------------|
E|---------------------------------------------------------|

e|-0----------------------1-----1--------------------------|
B|--0--1---3-1-0---------3-----3-----3---------------------|
G|-------2-------5--2--2-----2-----2---2-------------------|
D|-------------------------------------2-------------------|
A|---------------------------------------------------------|
E|---------------------------------------------------------|

Verse:1
[ Tab from: http://www.guitartabs.cc/tabs/s/scorpions/white_dove_crd_ver_2.html ]
[D]A place without A [A]name                          (C)      (G)
[Em]Under A burnin' [Bm]sky                           (Dm)     (Am)
[D]There's no milk and honey [A]here                  (C)      (G)  
[Em]In the land of [Bm]god                            (Dm)      (Am) 
                                                       And so on... 
[D]Someone holds a sign [A]it says                 
[Em]We are human [Bm]too                             
[D]And while the sun goes [A]down
[Em]The world goes [Bm]by

----Start of Chorus----
[D]White dove
[A]Fly with the wind
[Em]Take our hope
[Bm]Under your wing

[D]For the world to know
[A]That hope will not die
[Em]When the children [Bm]cry
----End of Chorus----

All the other verses are the same as the first verse.

Verse 2: 

Waves, big like a house
They're stranded on a piece of wood
To leave it all behind 
To start again, but

Insted of a new life
All they find is a door thats closed
And they keep looking for
A place called home

----chorus followed by NA NA NA NA NA NA in the same tune as the chorus----

Bridge:

[C]Can anyone tell me [Bm]why                     (A#)         (Dm) 
The children of [Em]the world                                  (Am)
Have to [F#]pay the price                               (E)

Verse 3: Same as first and second verse

And now you're tellin' me
You've seen it all before
I know its right but still
It breaks my heart, Well

The golden lamb we've sent
Makes us feel better now
But you know its just a drop 
In the sea of tears

----chorus followed by NA NA NA NA NA NA in the same tune as the chorus----


This is an absolutely GREAT song! Have fun playing it. Any comments mail to
DJ_Inferno2000@hotmail.com [case sensitive]
Comments