Scorpions - White Dove Chords & Tabs

 

White Dove Chords & Tabs

Scorpions Chords & Tabs

Version: 1 Type: Bass Tab 0 ratings
1 star 2 stars 3 stars 4 stars 5 stars
comments

White Dove Bass Tab

   
Song Title: White Dove
Artist: Scorpions

Tuning: Standard (E A D G)

Verse
-----------------|
-----------------|
--------5-7------|
--8--3-------5---|

Chorus
--------------------------|
--------------------------|
------------5-5/7-5-------|
--8-8-5-3-3----------5-5--|
[ Tab from: http://www.guitartabs.cc/tabs/s/scorpions/white_dove_btab.html ]
after 2nd Chorus a special Verse (Can anyone...)
------------------------------------------------|
--------------------------/-----/--\------------|
-------------------5-5-5-5-6-7-7-11-7-7---------|
-8-8-8-8--5-5-5-5-------------------------------|

Please rate this tab!

Submitted by : Felix Radtke (Germany,Saxony)
e-mail: felix-radtke@t-online.de
Comments