Scorpions - When The Smoke Is Going Down Chords & Tabs

 

When The Smoke Is Going Down Chords & Tabs

Scorpions Chords & Tabs

Version: 3 Type: Tab 0 ratings
1 star 2 stars 3 stars 4 stars 5 stars
comments

When The Smoke Is Going Down Tab

When The Smoke Is Going Down

Artist: Scorpions
Album: Blackout (1982)

Tab by Jose Antonio Muñoz Zapater (ja_zapater@hotmail.com)


Acoustic Guitar
  01                      02                    03                     04
e|----1-----3-1-0---|---1-------0-----|---1-----3-1-0---|---1-------0-----|
B|------3---------3-|-----3-------3---|-----3---------3-|-----3-------3---|
G|--------2---------|-------2-------2-|-------2---------|-------2-------2-|
D|--0---------------|-----------------|-0---------------|-----------------|
A|------------------|-1-------3-------|-----------------|-1-------3-------|
E|------------------|-----------------|-----------------|-----------------|


  05                      06                    07                     08
e|----1-----3-1-0---|---1-------0-----|---1-----3-1-0---|---1-------0-----|
B|------3---------3-|-----3-------3---|-----3---------3-|-----3-------3---|
G|--------2---------|-------2-------2-|-------2---------|-------2-------2-|
D|--0---------------|-----------------|-0---------------|-----------------|
A|------------------|-1-------3-------|-----------------|-1-------3-------|
E|------------------|-----------------|-----------------|-----------------|


  09                      10                    11                     12
e|----1-----3-1-0---|---1-------0-----|---1-----3-1-0---|---1-------0-----|
B|------3---------3-|-----3-------3---|-----3---------3-|-----3-------3---|
G|--------2---------|-------2-------2-|-------2---------|-------2-------2-|
D|--0---------------|-----------------|-0---------------|-----------------|
A|------------------|-1-------3-------|-----------------|-1-------3-------|
E|------------------|-----------------|-----------------|-----------------|


  13                     14                     15                     16
e|----1-----1-----0-|---0-----0-----0-|---1-----3-1-0---|---1-------0-----|
B|------3-----3-----|-----1-----1-----|-----3---------3-|-----3-------3---|
G|--------2-----2---|-------0-----0---|-------2---------|-------2-------2-|
D|--0---------------|-----------------|-0---------------|-----------------|
A|------------------|-3---------------|-----------------|-1-------3-------|
E|------------------|-----------------|-----------------|-----------------|


  17                     18                     19                     20
e|----1-----1-----0-|---0-----0-----0-|--1------3-1-0---|---1-------0-----|
B|------3-----3-----|-----1-----1-----|-----3---------3-|-----3-------3---|
G|--------2-----2---|-------0-----0---|-------2---------|-------2-------2-|
D|--0---------------|-----------------|-0---------------|-----------------|
A|------------------|-3---------------|-----------------|-1-------3-------|
E|------------------|-----------------|-----------------|-----------------|


  21                     22                     23                     24
e|----1-----1-----0-|---0-----0-----0-|---1-----3-1-0---|---1-------0-----|
B|------3-----3-----|-----1-----1-----|-----3---------3-|-----3-------3---|
G|--------2-----2---|-------0-----0---|-------2---------|-------2-------2-|
D|--0---------------|-----------------|-0---------------|-----------------|
A|------------------|-3---------------|-----------------|-1-------3-------|
E|------------------|-----------------|-----------------|-----------------|

  25                     26                     27                     28
e|----1-----1-----0-|---0-----0-----0-|---1-----3-1-0---|---1-------0-----|
B|------3-----3-----|-----1-----1-----|-----3---------3-|-----3-------3---|
G|--------2-----2---|-------0-----0---|-------2---------|-------2-------2-|
D|--0---------------|-----------------|-0---------------|-----------------|
A|------------------|-3---------------|-----------------|-1-------3-------|
E|------------------|-----------------|-----------------|-----------------|


  29                     30                     31                     32
e|------------------|-----------------|---1-----1-----0-|---3-----3-----1-|
B|----2-----2-----2-|--2-----2------2-|-----3-----3-----|-----4-----4-----|
G|------2-----2-----|----2-----2------|-------2-----2---|-3-----3-----3---|
D|--------2-----2---|------2-----2----|-0---------------|-----------------|
A|--0---------------|-0---------------|-----------------|-----------------|
E|------------------|-----------------|-----------------|-----------------|


  33                     34                     35                     36
e|----1-----1-----0-|---0-----0-----0-|---1-----3-1-0---|---1-------0-----|
B|------3-----3-----|-----1-----1-----|-----3---------3-|-----3-------3---|
G|--------2-----2---|-------0-----0---|-------2---------|-------2-------2-|
D|--0---------------|-----------------|-0---------------|-----------------|
A|------------------|-3---------------|-----------------|-1-------3-------|
E|------------------|-----------------|-----------------|-----------------|


  37                      38                    39                     40
e|----1-----3-1-0---|---1-------0-----|---1-----1-----0-|---0-----0-----0-|
B|------3---------3-|-----3-------3---|-----3-----3-----|-----1-----1-----|
G|--------2---------|-------2-------2-|-------2-----2---|-------0-----0---|
D|--0---------------|-----------------|-0---------------|-----------------|
A|------------------|-1-------3-------|-----------------|-3---------------|
E|------------------|-----------------|-----------------|-----------------|


  41                      42                    43                     44
e|----1-----3-1-0---|---1-------0-----|---1-----1-----0-|---0-----0-----0-|
B|------3---------3-|-----3-------3---|-----3-----3-----|-----1-----1-----|
G|--------2---------|-------2-------2-|-------2-----2---|-------0-----0---|
D|--0---------------|-----------------|-0---------------|-----------------|
A|------------------|-1-------3-------|-----------------|-3---------------|
E|------------------|-----------------|-----------------|-----------------|



  45                      46                    47                     48
e|----1-----3-1-0---|---1-------0-----|---1-----1-----0-|---0-----0-----0-|
B|------3---------3-|-----3-------3---|-----3-----3-----|-----1-----1-----|
G|--------2---------|-------2-------2-|-------2-----2---|-------0-----0---|
D|--0---------------|-----------------|-0---------------|-----------------|
A|------------------|-1-------3-------|-----------------|-3---------------|
E|------------------|-----------------|-----------------|-----------------|


  49                      50                    51                     52
e|----1-----3-1-0---|---1-------0-----|---1-----1-----0-|---0-----0-----0-|
B|------3---------3-|-----3-------3---|-----3-----3-----|-----1-----1-----|
G|--------2---------|-------2-------2-|-------2-----2---|-------0-----0---|
D|--0---------------|-----------------|-0---------------|-----------------|
A|------------------|-1-------3-------|-----------------|-3---------------|
E|------------------|-----------------|-----------------|-----------------|


  53                      54                    55                     56
e|----1-----3-1-0---|---1-------0-----|-----------------|-----------------|
B|------3---------3-|-----3-------3---|---2-----2-----2-|---2-----2-----2-|
G|--------2---------|-------2-------2-|-----2-----2-----|-----2-----2-----|
D|--0---------------|-----------------|-------2-----2---|-------2-----2---|
A|------------------|-1-------3-------|-0---------------|-0---------------|
E|------------------|-----------------|-----------------|-----------------|

  57                      58                     59                    60
e|----1-----1-----0-|---3-----3-----1-|---1-----1-----0-|---0-----0-----0-|
B|------3-----3-----|-----4-----4-----|-----3-----3-----|-----1-----1-----|
G|--------2-----2---|-3-----3-----3---|-------2-----2---|-------0-----0---|
D|--0---------------|-----------------|-0---------------|-----------------|
A|------------------|-----------------|-----------------|-3---------------|
E|------------------|-----------------|-----------------|-----------------|


  61                      62                     63                    64
e|----1-----3-1-0---|---1-------0-----|---1-----3-1-0---|---1-------0-----|
B|------3---------3-|-----3-------3---|-----3---------3-|-----3-------3---|
G|--------2---------|-------2-------2-|-------2---------|-------2-------2-|
D|--0---------------|-----------------|-0---------------|-----------------|
A|------------------|-1-------3-------|-----------------|-1-------3-------|
E|------------------|-----------------|-----------------|-----------------|


  65                      66                    67                     68
e|----1-----3-1-0---|---1-------0-----|---1-----3-1-0---|---1-------0-----|
B|------3---------3-|-----3-------3---|-----3---------3-|-----3-------3---|
G|--------2---------|-------2-------2-|-------2---------|-------2-------2-|
D|--0---------------|-----------------|-0---------------|-----------------|
A|------------------|-1-------3-------|-----------------|-1-------3-------|
E|------------------|-----------------|-----------------|-----------------|

  69                      70                    71                     72
e|----1-----3-1-0---|---1-------0-----|---1-----3-1-0---|---1-------0-----|
B|------3---------3-|-----3-------3---|-----3---------3-|-----3-------3---|
G|--------2---------|-------2-------2-|-------2---------|-------2-------2-|
D|--0---------------|-----------------|-0---------------|-----------------|
A|------------------|-1-------3-------|-----------------|-1-------3-------|
E|------------------|-----------------|-----------------|-----------------|


  73                      74                    75                     76
e|----1-----3-1-0---|---1-------0-----|---1-----3-1-0---|---1-------0-----|
B|------3---------3-|-----3-------3---|-----3---------3-|-----3-------3---|
G|--------2---------|-------2-------2-|-------2---------|-------2-------2-|
D|--0---------------|-----------------|-0---------------|-----------------|
A|------------------|-1-------3-------|-----------------|-1-------3-------|
E|------------------|-----------------|-----------------|-----------------|


  77                     78                     79                     80
e|------------------|-----------------|---1-----1-----0-|---3-----3-----1-|
B|----2-----2-----2-|--2-----2------2-|-----3-----3-----|-----4-----4-----|
G|------2-----2-----|----2-----2------|-------2-----2---|-3-----3-----3---|
D|--------2-----2---|------2-----2----|-0---------------|-----------------|
A|--0---------------|-0---------------|-----------------|-----------------|
E|------------------|-----------------|-----------------|-----------------|





  81                     82                     83                     84
e|----1-----1-----0-|---0-----0-----0-|---1-----3-1-0---|---1-------0-----|
B|------3-----3-----|-----1-----1-----|-----3---------3-|-----3-------3---|
G|--------2-----2---|-------0-----0---|-------2---------|-------2-------2-|
D|--0---------------|-----------------|-0---------------|-----------------|
A|------------------|-3---------------|-----------------|-1-------3-------|
E|------------------|-----------------|-----------------|-----------------|


  85                      86                    87                     88
e|----1-----3-1-0---|---1-------0-----|---1-----3-1-0---|---1-------0-----|
B|------3---------3-|-----3-------3---|-----3---------3-|-----3-------3---|
G|--------2---------|-------2-------2-|-------2---------|-------2-------2-|
D|--0---------------|-----------------|-0---------------|-----------------|
A|------------------|-1-------3-------|-----------------|-1-------3-------|
E|------------------|-----------------|-----------------|-----------------|


  89                      90                             91                     
e|----1-----3-1-0---|----1-----------0-------|-----1----|
B|------3---------3-|-------3-----------3----|----3-----|
G|--------2---------|----------2-----------2-|---2------|
D|--0---------------|------------------------|----------|
A|------------------|-1-----------3----------|----------|
E|------------------|------------------------|----------|





Back Guitar (Full Gain)
  01       02     03      04     05      06     07      08     09      10     11     12
e|------|-----|-----|-----|-----|-----|-----|-----|-----|-----|-----|-----|
B|------|-----|-----|-----|-----|-----|-----|-----|-----|-----|-----|-----|
G|------|-----|-----|-----|-----|-----|-----|-----|-----|-----|-----|-----|
D|------|-----|-----|-----|-----|-----|-----|-----|-----|-----|-----|-----|
A|------|-----|-----|-----|-----|-----|-----|-----|-----|-----|-----|-----|
E|------|-----|-----|-----|-----|-----|-----|-----|-----|-----|-----|-----|

  13       14     15     16      17      18     19      20     21      22     23     24
e|------|-----|-----|-----|-----|-----|-----|-----|-----|-----|-----|-----|
B|------|-----|-----|-----|-----|-----|-----|-----|-----|-----|-----|-----|
G|------|-----|-----|-----|-----|-----|-----|-----|-----|-----|-----|-----|
D|------|-----|-----|-----|-----|-----|-----|-----|-----|-----|-----|-----|
A|------|-----|-----|-----|-----|-----|-----|-----|-----|-----|-----|-----|
E|------|-----|-----|-----|-----|-----|-----|-----|-----|-----|-----|-----|
[ Tab from: http://www.guitartabs.cc/tabs/s/scorpions/when_the_smoke_is_going_down_tab_ver_3.html ]
  25       26     27      28     29      30     31      32     33      34     35     36
e|------|-----|-----|-----|-----|-----|-----|-1---|-----|-----|-----|-----|
B|------|-----|-----|-----|-----|-----|-----|-----|-----|-----|-----|-----|
G|------|-----|-----|-----|-2---|-----|-2---|-3---|-2---|-----|-2---|-----|
D|------|-----|-----|-----|-2---|-----|-0---|-----|-0---|-5---|-0---|-----|
A|------|-----|-----|-----|-0---|-----|-----|-----|-----|-3---|-----|-----|
E|------|-----|-----|-----|-----|-----|-----|-----|-----|-----|-----|-----|

  37       38     39      40     41      42     43      44     45      46     47     48
e|------|-----|-----|-----|-----|-----|-----|-----|-----|-----|-----|-----|
B|------|-----|-----|-----|-----|-----|-----|-----|-----|-----|-----|-----|
G|------|-----|-----|-----|-----|-----|-----|-----|-----|-----|-----|-----|
D|------|-----|-----|-----|-----|-----|-----|-----|-----|-----|-----|-----|
A|------|-----|-----|-----|-----|-----|-----|-----|-----|-----|-----|-----|
E|------|-----|-----|-----|-----|-----|-----|-----|-----|-----|-----|-----|

  49       50     51      52     53      54     55      56     57      58     59     60
e|------|-----|-----|-----|-----|-----|-----|-----|-----|-1---|-----|-----|
B|------|-----|-----|-----|-----|-----|-----|-----|-----|-----|-----|-----|
G|------|-----|-----|-----|-----|-----|-2---|-----|-2---|-3---|-2---|-----|
D|------|-----|-----|-----|-----|-----|-2---|-----|-0---|-----|-0---|-5---|
A|------|-----|-----|-----|-----|-----|-0---|-----|-----|-----|-----|-3---|
E|------|-----|-----|-----|-----|-----|-----|-----|-----|-----|-----|-----|

  61       62     63     64      65      66     67      68     69      70     71     72
e|------|-----|-----|-----|-----|-----|-----|-----|-----|-----|-----|-----|
B|------|-----|-----|-----|-----|-----|-----|-----|-----|-----|-----|-----|
G|--2---|-----|-----|-----|-----|-----|-----|-----|-----|-----|-----|-----|
D|--0---|-----|-----|-----|-----|-----|-----|-----|-----|-----|-----|-----|
A|------|-----|-----|-----|-----|-----|-----|-----|-----|-----|-----|-----|
E|------|-----|-----|-----|-----|-----|-----|-----|-----|-----|-----|-----|

  73       74     75      76     77      78     79      80     81      82     83     84
e|------|-----|-----|-----|-----|-----|-----|-1---|-----|-----|-----|-----|
B|------|-----|-----|-----|-----|-----|-----|-----|-----|-----|-----|-----|
G|------|-----|-----|-----|-2---|-----|-2---|-3---|-2---|-----|-2---|-----|
D|------|-----|-----|-----|-2---|-----|-0---|-----|-0---|-5---|-0---|-----|
A|------|-----|-----|-----|-0---|-----|-----|-----|-----|-3---|-----|-----|
E|------|-----|-----|-----|-----|-----|-----|-----|-----|-----|-----|-----|

  85       86     87      88     89      90     91      
e|------|-----|-----|-----|-----|-----|-----|
B|------|-----|-----|-----|-----|-----|-----|
G|------|-----|-----|-----|-----|-----|-----|
D|------|-----|-----|-----|-----|-----|-----|
A|------|-----|-----|-----|-----|-----|-----|
E|------|-----|-----|-----|-----|-----|-----|
Solo
  01       02     03      04     05      06     07      08     09      10     11     12
e|------|-----|-----|-----|-----|-----|-----|-----|-----|-----|-----|-----|
B|------|-----|-----|-----|-----|-----|-----|-----|-----|-----|-----|-----|
G|------|-----|-----|-----|-----|-----|-----|-----|-----|-----|-----|-----|
D|------|-----|-----|-----|-----|-----|-----|-----|-----|-----|-----|-----|
A|------|-----|-----|-----|-----|-----|-----|-----|-----|-----|-----|-----|
E|------|-----|-----|-----|-----|-----|-----|-----|-----|-----|-----|-----|

  13       14     15     16      17      18     19      20     21      22     23     24
e|------|-----|-----|-----|-----|-----|-----|-----|-----|-----|-----|-----|
B|------|-----|-----|-----|-----|-----|-----|-----|-----|-----|-----|-----|
G|------|-----|-----|-----|-----|-----|-----|-----|-----|-----|-----|-----|
D|------|-----|-----|-----|-----|-----|-----|-----|-----|-----|-----|-----|
A|------|-----|-----|-----|-----|-----|-----|-----|-----|-----|-----|-----|
E|------|-----|-----|-----|-----|-----|-----|-----|-----|-----|-----|-----|

  25       26     27      28     29      30     31      32     33      34     35     36
e|------|-----|-----|-----|-----|-----|-----|-- --|-----|-----|-----|-----|
B|------|-----|-----|-----|-----|-----|-----|-----|-----|-----|-----|-----|
G|------|-----|-----|-----|-----|-----|-----|-----|-----|-----|-----|-----|
D|------|-----|-----|-----|-----|-----|-----|-----|-----|-----|-----|-----|
A|------|-----|-----|-----|-----|-----|-----|-----|-----|-----|-----|-----|
E|------|-----|-----|-----|-----|-----|-----|-----|-----|-----|-----|-----|

  37       38     39      40     41      42     43      44     45      46     47     48
e|------|-----|-----|-----|-----|-----|-----|-----|-----|-----|-----|-----|
B|------|-----|-----|-----|-----|-----|-----|-----|-----|-----|-----|-----|
G|------|-----|-----|-----|-----|-----|-----|-----|-----|-----|-----|-----|
D|------|-----|-----|-----|-----|-----|-----|-----|-----|-----|-----|-----|
A|------|-----|-----|-----|-----|-----|-----|-----|-----|-----|-----|-----|
E|------|-----|-----|-----|-----|-----|-----|-----|-----|-----|-----|-----|

  49       50     51      52     53      54     55      56     57      58     59     60
e|------|-----|-----|-----|-----|-----|-----|-----|-----|-----|-----|-----|
B|------|-----|-----|-----|-----|-----|-----|-----|-----|-----|-----|-----|
G|------|-----|-----|-----|-----|-----|-----|-----|-----|-----|-----|-----|
D|------|-----|-----|-----|-----|-----|-----|-----|-----|-----|-----|-----|
A|------|-----|-----|-----|-----|-----|-----|-----|-----|-----|-----|-----|
E|------|-----|-----|-----|-----|-----|-----|-----|-----|-----|-----|-----|

  61              62                     63     64                            65    
e|------------|-5-6-8~~~~~------|-----|-5-6-8-----10b(12/10)--|-----------|
B|--8-8b(10)--|-----------5-6---|-----|-----------------------|-10~~~~----|
G|------------|-----------------|-----|-----------------------|-----------|
D|------------|-----------------|-----|-----------------------|-----------|
A|------------|-----------------|-----|-----------------------|-----------|
E|------------|-----------------|-----|-----------------------|-----------|

  66                             67             68                            69
e|--10-12-13----15----12--|-----------|-12-13-15b(16)---12----|-13—--------
B|------------------------|-13--------|-----------------------|------------
G|------------------------|----14~~~~-|-----------------------|------------
D|------------------------|-----------|-----------------------|------------
A|------------------------|-----------|-----------------------|------------
E|------------------------|-----------|-----------------------|------------

  69              70                                    71             72
e|--17----18--|-20---22---20---22---20---22-|-10--------|-----------------|
B|------------|-----------------------------|--10-------|-----------------|
G|------------|-----------------------------|---10------|-----------------|
D|------------|-----------------------------|----12-----|-----------------|
A|------------|-----------------------------|-----------|-8--10--7--------|
E|------------|-----------------------------|-----------|-----------8--10-|
  73              74                                                  75
e|-20--20--20-|-20---17---18---17---15--------15---17---|-15b(17)----------
B|------------|--------------------------18-------------|------------------
G|------------|-----------------------------------------|------------------
D|------------|-----------------------------------------|------------------
A|------------|-----------------------------------------|------------------
E|------------|-----------------------------------------|------------------

  75                      76                            77             78     79     80
e|--15----13----15--|-15b(16/15)----13---12-|-10/9~~----|-----|-----|-----|
B|------------------|-----------------------|-----------|-----|-----|-----|
G|------------------|-----------------------|-----------|-----|-----|-----|
D|------------------|-----------------------|-----------|-----|-----|-----|
A|------------------|-----------------------|-----------|-----|-----|-----|
E|------------------|-----------------------|-----------|-----|-----|-----|

  81       82     83      84     85      86     87      88     89      90     91
e|------|-----|-----|-----|-----|-----|-----|-- --|-----|-----|-----|
B|------|-----|-----|-----|-----|-----|-----|-----|-----|-----|-----|
G|------|-----|-----|-----|-----|-----|-----|-----|-----|-----|-----|
D|------|-----|-----|-----|-----|-----|-----|-----|-----|-----|-----|
A|------|-----|-----|-----|-----|-----|-----|-----|-----|-----|-----|
E|------|-----|-----|-----|-----|-----|-----|-----|-----|-----|-----|




Guitar Solo (Back Guitar)
  01       02     03      04     05      06     07      08     09      10     11     
e|------|-----|-----|-----|-----|-----|-----|-----|-----|-----|-----------|
B|------|-----|-----|-----|-----|-----|-----|-----|-----|-----|-----------|
G|------|-----|-----|-----|-----|-----|-----|-----|-----|-----|-----------|
D|------|-----|-----|-----|-----|-----|-----|-----|-----|-----|-----------|
A|------|-----|-----|-----|-----|-----|-----|-----|-----|-----|-----------|
E|------|-----|-----|-----|-----|-----|-----|-----|-----|-----|-----------|

  12              13             14      15     16      17     18      19     20     21
e|---------8--|-10--------|-----|-----|-----|-----|-----|-----|-----|-----|
B|---------8--|-10--------|-----|-----|-----|-----|-----|-----|-----|-----|
G|---------9--|-10--------|-----|-----|-----|-----|-----|-----|-----|-----|
D|--------10--|-12--------|-----|-----|-----|-----|-----|-----|-----|-----|
A|--------10--|-12--------|-----|-----|-----|-----|-----|-----|-----|-----|
E|---------8--|-10--------|-----|-----|-----|-----|-----|-----|-----|-----|

  22       23     24      25     26      27     28      29     30      31     32     33
e|------|-----|-----|-----|-----|-----|-----|-----|-----|-----|-----|-----|
B|------|-----|-----|-----|-----|-----|-----|-----|-----|-----|-----|-----|
G|------|-----|-----|-----|-----|-----|-----|-----|-----|-----|-----|-----|
D|------|-----|-----|-----|-----|-----|-----|-----|-----|-----|-----|-----|
A|------|-----|-----|-----|-----|-----|-----|-----|-----|-----|-----|-----|
E|------|-----|-----|-----|-----|-----|-----|-----|-----|-----|-----|-----|

  34       35     36                     37             38                    39     40 
e|------|-----|-8---------------|-----------|-8---------------|-----|-----|    
B|------|-----|----10b(12/10)---|-8/6-------|----10b(12/10)---|-----|-----|
G|------|-----|-----------------|-----------|-----------------|-----|-----|
D|------|-----|-----------------|-----------|-----------------|-----|-----|
A|------|-----|-----------------|-----------|-----------------|-----|-----|
E|------|-----|-----------------|-----------|-----------------|-----|-----|

  41                      42     43      44     45      46                    47       
e|------------------|-----|-----|-----|-----|-8---------------|-----------|
B|------6-6----8-8--|-----|-----|-----|-----|----10b(12/10)---|-8/6-------|
G|----7-------------|-----|-----|-----|-----|-----------------|-----------|
D|--7-------7-------|-----|-----|-----|-----|-----------------|-----------|
A|------------------|-----|-----|-----|-----|-----------------|-----------|
E|------------------|-----|-----|-----|-----|-----------------|-----------|

  48       49                    50      51     52      53     54                    55
e|------|-----------------|-----|-----|-----|-----|-8---------------|-----|
B|------|---6---8-6-------|-----|-----|-----|-----|----10b(12/10)---|-----|
G|------|-----------9-7---|-----|-----|-----|-----|-----------------|-----|
D|------|-7---7-----------|-----|-----|-----|-----|-----------------|-----|
A|------|-----------------|-----|-----|-----|-----|-----------------|-----|
E|------|-----------------|-----|-----|-----|-----|-----------------|-----|

  56       57     58      59     60      61     62      63     64      65     66     67
e|------|-----|-----|-----|-----|-----|-----|-----|-----|-----|-----|-----|
B|------|-----|-----|-----|-----|-----|-----|-----|-----|-----|-----|-----|
G|------|-----|-----|-----|-----|-----|-----|-----|-----|-----|-----|-----|
D|------|-----|-----|-----|-----|-----|-----|-----|-----|-----|-----|-----|
A|------|-----|-----|-----|-----|-----|-----|-----|-----|-----|-----|-----|
E|------|-----|-----|-----|-----|-----|-----|-----|-----|-----|-----|-----|

  68       69     70      71     72      73     74      75     76      77     78     79
e|------|-----|-----|-----|-----|-----|-----|-----|-----|-----|-----|-----|
B|------|-----|-----|-----|-----|-----|-----|-----|-----|-----|-----|-----|
G|------|-----|-----|-----|-----|-----|-----|-----|-----|-----|-----|-----|
D|------|-----|-----|-----|-----|-----|-----|-----|-----|-----|-----|-----|
A|------|-----|-----|-----|-----|-----|-----|-----|-----|-----|-----|-----|
E|------|-----|-----|-----|-----|-----|-----|-----|-----|-----|-----|-----|
  80       81     82      83                    84      85                    86        
e|------|-----|-----|-----------------|-----|-----------------|-----------|
B|------|-----|-----|---------8-6-----|-----|---------8-6-----|-----------|
G|------|-----|-----|---7-7-------9-7-|-----|---7-7-------9-7-|-----------|
D|------|-----|-----|-7-----7---------|-----|-7-----7---------|-----------|
A|------|-----|-----|-----------------|-----|-----------------|-----------|
E|------|-----|-----|-----------------|-----|-----------------|-----------|

  87                      88                    89                     90         91  
e|------------------|-----------------|-----------------|--------|--------|
B|----------8-6-----|---------8-6-----|---------8-6-----|--------|--------|
G|----7-7-------9-7-|---7-7-------9-7-|---7-7-------9-7-|--------|--------|
D|--7-----7---------|-7-----7---------|-7-----7---------|--------|--------|
A|------------------|-----------------|-----------------|--------|--------|
E|------------------|-----------------|-----------------|--------|--------|


Enjoy it...
Comments