Scorpions - When The Smoke Is Going Down Chords & Tabs

 

When The Smoke Is Going Down Chords & Tabs

Scorpions Chords & Tabs

Version: 1 Type: Bass Tab 0 ratings
1 star 2 stars 3 stars 4 stars 5 stars
comments

When The Smoke Is Going Down Bass Tab

------------------------------------------------------------------------                  
             When the smoke is going down - Scorpions

------------------------------------------------------------------------


Tabbed by: Indiana
e-mail: indiana@otenet.gr

Tuning: Standard


G|----------------|----------------|----------------|----------------|
D|----------------|----------------|----------------|----------------|
A|----------------|----------------|----------------|----------------|
E|----------------|----------------|----------------|6-6\----8-8-8\--|
  ^       ^        ^       ^        ^       ^        ^       ^
					            Drums enter here

G|----------------|----------------|----------------|----------------|
D|----------------|------8/10~~----|----------------|-------/10~~~---|
A|----------------|----------------|5~~-------------|----------------|
E|10~~~-----------|----------------|----------------|----------------|
  ^       ^        ^       ^        ^       ^        ^       ^

G|----------------|------------9/12|10~~~\----------|----------------|
D|----------------|----------------|----------------|----------------|
A|5~~-------------|----------------|----------------|1-------3-------|
E|----------------|----------------|----------------|----------------|
  ^       ^        ^       ^        ^       ^        ^       ^

Lyrics:
[ Tab from: http://www.guitartabs.cc/tabs/s/scorpions/when_the_smoke_is_going_down_btab.html ]
G|----------------|----------------|----------------|----------------|
D|----------------|----------------|----------------|----------------|
A|5---------------|3---------------|5---------------|1-------3-------|
E|----------------|----------------|----------------|-------------(3)|
  ^       ^        ^       ^        ^       ^        ^       ^
    Just when you make ur way back home
      I find some time  to be    alone
       I go  to see  the place once more
    Just like a thousand nights before



Refrain:

G|----------------|--------2-------|----------------|----------------|
D|--------0-------|3---------------|0---------------|1---------------|
A|0---------------|----------------|----------------|--------3-------|
E|----------------|----------------|----------------|----------------|
  ^       ^        ^       ^        ^       ^        ^       ^
      I climb the stage again this night, cause the place is   still



G|----------------|----------------|----------------|----------------|
D|0---------------|----------------|----------------|----------------|
A|----------------|3-----------3---|5---------------|1-------3-------|
E|----------------|----------------|----------------|----------------|
  ^       ^        ^       ^        ^       ^        ^       ^
 alive  when the smoke is go - ing down


Ending:

G|----------------|----------------|----------------|----------------|
D|----------------|----------------|----------------|----------------|
A|5---------------|1-------3-------|5---------------|1-------3-------|
E|----------------|----------------|----------------|----------------|
  ^       ^        ^       ^        ^       ^        ^       ^
Comments