Scorpions - We Let It Rock You Let It Roll Chords & Tabs

 

We Let It Rock You Let It Roll Chords & Tabs

Scorpions Chords & Tabs

Version: 1 Type: Tab 0 ratings
1 star 2 stars 3 stars 4 stars 5 stars
comments

We Let It Rock You Let It Roll Tab

#----------------------------------PLEASE NOTE---------------------------------#
#This file is the author's own work and represents their interpretation of the #
#song. You may only use this file for private study, scholarship, or research. #
#------------------------------------------------------------------------------#

Artist: Scorpions
Song: We let it rock... you let it roll 
Tabbed by: John Leadman              


fig 1             
---------------------------¦------¦-----------
---------------------------¦------¦-----------
----9-9-8----12-12-12---x--¦-7----¦--12------- 
----9-9-8----12-12-12---x--¦-7----¦--10------- 
----7-7-6----10-10-10---x--¦-5----¦-----------
---------------------------¦------¦-----------

fig 2
------------------------------------------------¦
------------------------------------------------¦
----9----------5-----5-----5-----5-----5-----5--¦
----9----------5-----5-----5-----5-----5-----5--¦
----7----------3-0-0-3-0-0-3-0-0-3-0-0-3-0-0-3--¦
------------------------------------------------¦
                 p.m.  ...   ...   ...   ...

fig 3
--------------------------------------------------------------------------------------
--------------------------------------------------------------------------------------
-4-4-4-4-4-4-4---5-5-5-5-5-5---2-----2-----2-----2-----2-----2-----4-----4-----4-----4
-4-4-4-4-4-4-4---5-5-5-5-5-5---2-----2-----2-----2-----2-----2-----4-----4-----4-----4
-2-2-2-2-2-2-2---3-3-3-3-3-3---0-0-0-0-0-0-0-0-0-0-0-0-0-0-0-0-2-2-2-2-2-2-2-2-2-2-2-2
--------------------------------------------------------------------------------------
p.m.........................     ...   ...   ...   ...   ...   ...   ...   
...   ...

[ Tab from: http://www.guitartabs.cc/tabs/s/scorpions/we_let_it_rock_you_let_it_roll_tab.html ]
fig 4

------------------------------------------------¦------------------------------------------
------------------------------------------------¦------------------------------------------
----9-----------9-5-----5-----5-----5-----------¦--9--------9-----9-----5-----5-----5-----5
----9-----------9-5-----5-----5-----5-----------¦--9--------9-----9-----5-----5-----5-----5
----7-----------7-3-0-0-3-----3-0-0-3-----------¦--7--------7-7-7-7-----3-0-0-3-----3-0-0-3
------------------------------------------------¦------------------------------------------
                    p.m..     .......                      ......       
.......     .......

---------------------------------------------------------------------
---------------------------------------------------------------------
-4-----4-----4-----4-----4-----4---5-----5-----5-----5-----5-----5---
-4-----4-----4-----4-----4-----4---5-----5-----5-----5-----5-----5---
-2-2-2-2-2-2-2-2-2-2-2-2-2-2-2-2---3-3-3-3-3-3-3-3-3-3-3-3-3-3-3-3---
---------------------------------------------------------------------
p.m..................................................................


--------------------------------------------------------------------------------------
--------------------------------------------------------------------------------------
---2-----2-----2-----2-----2-----2-----4-----4-----4-----4----------------------------
---2-----2-----2-----2-----2-----2-----4-----4-----4-----4----------------------------
---0-0-0-0-0-0-0-0-0-0-0-0-0-0-0-0-2-2-2-2-2-2-2-2-2-2-2-2----------------------------
--------------------------------------------------------------------------------------
p.m........................................................
Comments