Scorpions - Through My Eyes Chords & Tabs

 

Scorpions Chords & Tabs

Version: 1 Type: Tab 0 ratings
1 star 2 stars 3 stars 4 stars 5 stars
comments

Through My Eyes Tab

   
Date    : 12th,July,2004
Song    : Through My Eyes
Artist  : Scorpions
Album   : Unbreakable (Realeased 2004)
I am    : Mohamed Hassan ...20 years old ..Egyptian

There you go,Another song from the new album,and I'm working on the rest,Though
I Hope someone else give it a shot and correct any mistakes I made,I kinda like
The lyrics to this one :)

Intro & verses
With overdrive and replay

----0------------------------|----0---------------------|
-----3-----------0-------0---|------3-------------------|
-------2---2---2---0---2---0-|--------2--2-----0----0---|
--0--------------------------|--0-------------0-0--0-0--|
---------0-----------2-------|---------0----------------|
-0-----------3---------------|-0------------3-----2-----|

So Much said and done......................
---------------------------------0--------0--------3-----0--|
----0------0------0------0------3-3------3-3------3-3----3--|
-------------------------------0---0-0--0---0-0--0---0-0-0--|
--0--0---0---0--0---0--0---0--2-----2--------------------0--|
-2-----2-------2------2-------------------------2-----2--0--|
---------------------------------------3-----3--------------|

Chorus
------
E5 C5 D5 B5 C5
-------------------------------------|
-------------------------------------|
-999--99--555---777--77--444-555-----|
-999--99--555---777--77--444-555-----|
-777--77--333---555--55--222-333-----|
-------------------------------------|
E5 C5 D5 G5 A5
-------------------------------------|
-------------------------------------|
-999--99--555---777--77--------------|
-999--99--555---777--77--5-7---------|
-777--77--333---555--55--5-7---------|
-------------------------3-5---------|

Bridge :
[ Tab from: http://www.guitartabs.cc/tabs/s/scorpions/through_my_eyes_tab.html ]
---------------------------|
---------------------------|
--5--7--5--7---------------|
--5--7--5--7---------------|
--3--5--3--5---------------|
---------------------------|

Solo :

On Chorus pattern
---------------------------------------|
---------------------------------------|
-------12-14-14b15r-12-11-12-11-9------|
-12h14---------------------------------|
---------------------------------------|
---------------------------------------|

-------------------|
--17-15-12h13-12---|
-------------------|
-------------------|
-------------------|
-------------------|

------------------------------------------|
------------------------------------------|
-------12-14-14b15r-12-11-12-11-9---------|
-12h14------------------------------------|
------------------------------------------|
------------------------------------------|

------------------------------------------|
------------------------------------------|
------------------------------------------|
-9-10-9-7-7-7-7-9-10-9-7-7----------------|
------------------------------------------|
------------------------------------------|

On Bridge Pattern
---------------------------------19~-----|
-------------------------17-19-20--------|
-----------------12-14-16----------------|
---------12-14-15------------------------|
-12-14-15--------------------------------|
-----------------------------------------|

-24-22-20-19-20-19-15-12----| |--0--0--0--0--0--0-|
----------------------------| |---3--3-----3--3---|
----------------------------| |----2--2-----2--2--|
----------------------------| |-------------------|
----------------------------| |-------------------|
----------------------------| |-3--------3--------|

Repeat Chours

Outro :
Repeat Bridge

That's it...easy song ...but I think it's kinda hard to preform live,cause Klaus hits 
high notes there...
have fun,Rate it,and Keep It Rockin' :)
------------------------------------------------------------------------------
Comments