Scorpions - They Need A Million Chords & Tabs

 

They Need A Million Chords & Tabs

Scorpions Chords & Tabs

Version: 1 Type: Tab 0 ratings
1 star 2 stars 3 stars 4 stars 5 stars
comments

They Need A Million Tab

				"THEY NEED A MILLION"
			       (K. Meine - R. Schenker)

  
Intro

[x07500]					     [xx5400]
------------0--------------------------0-----------|--------------0------------
------0--------0-----0-----------0--------0-----0--|--------0--------0-----0---
---5-----5--------5-----------5-----5--------5-----|-----4-----4--------4------
---------------------------7-----------------------|--5------------------------
0--------------------------------------------------|---------------------------
---------------------------------------------------|---------------------------
                                                                                

[xx5457]			[xx3200]		    [xx3235]
---------------7--------------|--------------0--------------------------5------
---------5--------5-----5-----|--------0--------0-----0-----------3--------3---
------4-----4--------4--------|-----2-----2--------2-----------2-----2---------
---5--------------------------|--3--------------------------3------------------
------------------------------|------------------------------------------------
------------------------------|------------------------------------------------
                                                                                

        [xx2100]		    [xx3200]                  [xx2100]
------|--------------0-----------|--------------0-----------|--------------0---
---3--|--------0--------0-----0--|--------0--------0-----0--|--------0---------
2-----|-----1-----1--------1-----|-----2-----2--------2-----|-----1-----1------
------|--2-----------------------|--3-----------------------|--2---------------
------|--------------------------|--------------------------|------------------
------|--------------------------|--------------------------|------------------
                                                                                
[ Tab from: http://www.guitartabs.cc/tabs/s/scorpions/they_need_a_million_tab.html ]
                                                                                
---------|-------0--------0--------0--------0------||   
0-----0--|-----0--------0--------0--------0--------||
---1-----|-----------------------------------------||  Repeat for Vocals:
---------|--2--------0-----------------------------||  "I see a rainbow in the
---------|--------------------3--------2--------0--||  sky..."
---------|-----------------------------------------||
                                                                                

"They need a million, and..."                                                   
----------0--------|-----------0--------|-----------0--------|-----------0-----
-------0-----0-----|--------0-----0-----|--------0-----0-----|--------0--------
----9-----------9--|-----7-----------7--|-----5-----------5--|-----4-----------
10-----------------|--9-----------------|--7-----------------|--5--------------
-------------------|--------------------|--------------------|-----------------
-------------------|--------------------|--------------------|-----------------
                                                                                

       2x                                             2x  Fast Arpeggios      
-------||-----------------------------------0---------||-------------0---------
0------||--------0-----------0-----------0-----0------||-----------0---0-------
---4--*||-----3-----------2-----------0-----------0--*||---------3-------3-----
------*||--4-----------3-----------2-----------------*||--(4)--4-----------4---
-------||---------------------------------------------||-----------------------
-------||---------------------------------------------||-----------------------
                                                                                

                                                                                
|--------0--------|
|------0---0------|
|----2-------2----|
|--3-----------3--|
|-----------------|
|-----------------|
Comments