Scorpions - The Zoo Chords & Tabs

 

The Zoo Chords & Tabs

Scorpions Chords & Tabs

Version: 4 Type: Tab 0 ratings
1 star 2 stars 3 stars 4 stars 5 stars
comments

The Zoo Tab

The Zoo
by The Scorpions
Tabbed By ScorpionMan
TUNE UP 1/4 STEP

**NOTE**
Palm Mute ALL OPEN E (6th String) in the whole song (except in solos)

--------------------------------------------------------
*** this took forever. Hopefully people want this song.
--------------------------------------------------------

Tablature Explanation
---------------------
^ = bend
r = release bend
P.M = palm mute
/ or \ = slide
~ = vibrato
P.S. = pick slide
h = hammer on
p = pull off
* = use whammy bar for a -1 bend.
x = fret mute
----------------------



Solo 1                 *    *    *    *      *    *    *    *
e------------|------|---------------------|--------------------------|
B-3----------|------|-(3)--(3)--(3)--(3)--|-(3)--(3)--(3)--(3)-------|
G-2^4--------|------|-(2)--(2)--(2)--(2)--|-(2)--(2)--(2)--(2)^4r2p0-|
D------------|-Hold-|---------------------|--------------------------|
A------------|------|---------------------|--------------------------|
E------------|------|---------------------|--------------------------|

e---------|----------|
B---------|----------|
G---------|----------|
D-2-------|----------| Hold Open E 2 more measures
A---------|----------|
E-----3^4-|-0--------|


Solo 2
e-22^24--22^24--22^24--22^24~~~-|-17^19r17p15-17-17^19r17p15---|-------15^17r15p12-|
B-------------------------------|---------------------------17~|~~--12-------------|
G-------------------------------|------------------------------|-------------------|

e--------12----------------------------------|--------------|--------|
B-15^17~~---15-12----------------------------|--------------|--------|
G-----------------14^16r14p12-14-14^16r14p12-|-14^16~~~~~~~~|~~------|

e-17^19r17p15-17^19-17^20r17p15-|-----------|
B-------------------------------|-17~~~~~~~~|
G-------------------------------|-----------|

Solo 3
e------------|-----------|------------|----------|
B-3----------|-----------|------------|----------|
G-2^4--------|------r2p0-|------------|----------|
D------------|-----------|-0h2--------|----------| Hold E another measure
A------------|-----------|------------|----------|
E------------|-----------|------------|-0--------|


e------------|----------|----------------|----------|----------|
B-3----------|---3------|-3--------------|----------|-8--------|
G-2^4--------|---2^4----|-2-p0-----------|----------|-7--------|
D------------|----------|-----2---p0-----|----------|----------|
A------------|----------|----------------|----------|----------|
E------------|----------|------------3^4-|-0--------|----------|

[ Tab from: http://www.guitartabs.cc/tabs/s/scorpions/the_zoo_tab_ver_4.html ]
e-------------|------------|----------|------------------------|
B-8/10--------|-8------(8)\|----------|-15---------15----------|
G-7/9---------|-7------(7)\|----------|-14^16------14^16r14p12-|
D-------------|------------|----------|------------------------|
A-------------|------------|----------|------------------------|
E-------------|------------|-0--------|------------------------|


e-------------------------|------------------------|----------------------|-----------------|
B-15-15-------15----------|-15^17~~~~~~15^17r15p12-|----------------------|-12--14^15-------|
G-14-14^16----14^16r14-12-|------------------------|-14^16r14p12----------|-12--14^16-------|
D-------------------------|------------------------|------------14~~~~~14-|--------------14-|
A-------------------------|------------------------|----------------------|-----------------|
E-------------------------|------------------------|----------------------|-----------------|


e---------------|-----------------------|-------------------|-----------------12------------------|
B-12------------|-----------14-12-14-12-|-12~~--------------|-12-12----15^17-----12-15-15^17r15-12|
G-12------------|-----------14-12-14-12-|-12~~--------------|-12-12-------------------------------|
D-----14~~~~~---|-12-14--14-------------|-----14-12-14~~~14-|-------14----------------------------|
A------------14-|-----------------------|-------------------|-------------------------------------|
E---------------|-----------------------|-------------------|-------------------------------------|


e---------------------------------|---------------------12-------|------12-----------------------------------|
B-15^17-15^17r15p12---12-15----12-|------------------------15-12-|15^17~---15^17r15p12---------------14----12|
G------------------14-------14----|14^16----14^15r14p12----------|---------------------14^15r14p12---14----12|
D---------------------------------|------------------------------|--------------------------------14----14---|
A---------------------------------|------------------------------|-------------------------------------------|
E---------------------------------|------------------------------|-------------------------------------------|


e------------------|--------------------------------|---------------------------------|
B-----12----15-----|-15-----------------------------|-15--------------15--------------|
G-----12----14^16--|-14^16-----------------12----12-|-14^16--12----12-14^16--12----12-|
D-14---------------|--------14-14----12-14----14----|-----------14--------------14----|
A------------------|--------------14----------------|---------------------------------|
E------------------|--------------------------------|---------------------------------|
Comments