Scorpions - The Zoo Chords & Tabs

 

The Zoo Chords & Tabs

Scorpions Chords & Tabs

Version: 1 Type: Bass Tab 0 ratings
1 star 2 stars 3 stars 4 stars 5 stars
comments

The Zoo Bass Tab

   
The Zoo - animal magnetism

Intro:
G|---------------------------------|
D|---------------------------------|
A|---------------------------------|
E|-0-0-0-0-0-0-0-0-0-0-0-0-0-0-0-0-|

Verse:
G|-------------------------------------------------|
D|-------------------------------------------------|
A|-------------------------------------------------|
E|-0-0-0-0-0-0-0-0-0-0-0-0-0-0-0-0-0-0-0-0-0-0-0-0-|
[ Tab from: http://www.guitartabs.cc/tabs/s/scorpions/the_zoo_btab.html ]
G|-------------------------------------------------|
D|-------------------------------------------------|
A|----------------------------------3-3-3-3--------|
E|-0-0-0-0-0-0-0-0-0-0-0-0-0-0-0-0-0-------0-0-0-0-|

Chorus:
G|-0-0----------0-0-----------0-0--------------------------|----------|
D|----0-0-2-2------0-0-2-2-2-2---0-0-2-2-------0-0-2-2-2-2-|----------|
A|-----------3-3------------------------3-3-2-2------------|-00000003-|
E|---------------------------------------------------------|----------|
Comments