Scorpions - Tease Me Please Me Chords & Tabs

 

Tease Me Please Me Chords & Tabs

Scorpions Chords & Tabs

Version: 2 Type: Chords 0 ratings
1 star 2 stars 3 stars 4 stars 5 stars
comments

Tease Me Please Me Chords

   
This tab is sent by John-Paul Jalwan (Lebanon)
E-mail me at : johnpauljalwan@usa.net
       or at : johnpauljalwan@hotmail.com
      and visit my homepage : 
                   www.geocities.com/SunsetStrip?Frontrow/1565



S    C    O    R    P    I    O    N    S 
           Tease Me Please Me

INTRO:


    Dsus2         A5             E
 G1|----0--------|-------------|------0-------
   |----3--------|-------------|------0-------
   |----2--------|-----2-------|------1-------      
   |----0--------|-----2-------|------2-------
   |-------------|-----0-------|------2-------
   |-------------|-------------|------0-------
   |
   | 
 G2|-------------|-------------|--------------
   |-------------|-------------|--------------
   |-------------|-------------|--/7b----7/9v-
   |-------------|-------------|--------------
   |-------------|-------------|--------------
   |-------------|-------------|--------------



     Dsus2         A5            E
 G1|----0--------|-------------|------0-------
   |----3--------|-------------|------0-------
   |----2--------|-----2-------|------1-------      
   |----0--------|-----2-------|------2-------
   |-------------|-----0-------|------2-------
   |-------------|-------------|------0-------
   |
   |
 G2|-------------|-------------|--------------
   |-----(9)v----|---8--10-----|-------15-----
   |-------------|-------------|---14b-----14b
   |-------------|-------------|--------------
   |-------------|-------------|--------------
   |-------------|-------------|--------------



[ Tab from: http://www.guitartabs.cc/tabs/s/scorpions/tease_me_please_me_crd_ver_2.html ]
    Dsus2         A5            E
 G1|----0--------|-------------|------0-------
   |----3--------|-------------|------0-------
   |----2--------|-----2-------|------1-------      
   |----0--------|-----2-------|------2-------
   |-------------|-----0-------|------2-------
   |-------------|-------------|------0-------
   |
   |
 G2|-------------|-------------|--------------
   |12/10v-------|---12b---12v-|---9v---------
   |-------------|-------------|--------------
   |-------------|-------------|--------------
   |-------------|-------------|--------------
   |-------------|-------------|--------------



 G1|-----------------|------------------|-------------------
   |-----------------|------------------|-------------------
   |-----------------|------------------|------------2--0---
   |-------0---------|-------0----------|-------0----2--0---
   |---1-2---4-0-----|---1-2---4-0------|---1-2-------------
   |-0-----------3-0-|-0-----------3----|-0-----------------


 G1|-----------------|------------------|-------------------
   |-----------------|------------------|-------------------
   |-----------------|------------------|------------2--0---
   |-------0---------|-------0----------|-------0----2--0---
   |---1-2---4-0-----|---1-2---4-0------|---1-2-------------
   |-0-----------3-0-|-0-----------3----|-0-----------------


A5                 
I've Been around the world 
A5
I've known alot of girls 
A5
Living and loving 
A5                      G5     E5
It's hard to keep them all in line 

A5
I've seen a lot of sights
A5
Many crazy nights 
A5
Cruising and boozing
A5                     G5     E5
It's a wonder that i'm still alive



D5                A5
Never Wasted any time, 
                 E5  
Never missed a beat
D5         A5
Total satisfaction, 
          Bb5  B5    
Always garanteed



E5    D5  E5     D5
Tease Me, Please Me
E5                 D5    A5
And noone needs to know, oh no
E5    D5  E5     D5
Tease me, Please me 
 E5      D5         A5   G5
Before I have to go...      Come on
Comments