Scorpions - Still Lovin You Chords & Tabs

 

Still Lovin You Chords & Tabs

Scorpions Chords & Tabs

Version: 1 Type: Bass Tab 0 ratings
1 star 2 stars 3 stars 4 stars 5 stars
comments

Still Lovin You Bass Tab

scorpions
still lovin you
tabbed by saturns_bassman

"fight..."(1:23)

G -------------------------------------------|
D -------------------------------------------|
A -----------------3--0-0---5--5-5-----------|
E -3--3-3---3--3-3---------------------------|


"if we'd go..."(2:00)&(3:36)

G -------------------------------------|
D -------------------------------------|
A ---------------------2---------------|
E -3----------0-----------------1------|

G ---------------------------------------|
D ---------------------------------------|
A --------------------2------------------|
E -0-2-3-------0-------------1-1--1------|

G ----------------------------------------|
D ----------------------------------------|
A ---------3--3-5--5----------------------|
E -0-2-3-3-----------3--3-0--0-0---1------|


"try..."(2:59)
[ Tab from: http://www.guitartabs.cc/tabs/s/scorpions/still_lovin_you_btab.html ]
G --------------------------------------|
D --------------------------------------|
A -----------------0--0-0--5--5-5-------|
E -3--3-3--3--3-3-----------------------|


"love,our love..."  (3:18)

G --------------------------------------|
D --------------------------------------|
A --------------------0--0-0--5--5-5----|
E -3--3-3--0-2-3--3-3-------------------|


"if we'd..." (4:12)
G ------------------------------|
D ------------------------------|
A -----------2------------------|
E -0-2-3--0-----1---------------|   x2

G ---------------------------------------------|
D ---------------------------------------------|
A -----------3------------5-3-5----------------|
E -3-1-3------------------------3---0---1------|
 "es, i've hurt.."


"i'm still lovin you..."(4:45)

G -------------------------------------|
D -------------------------------------|
A ------------0-1-2----2---------------|
E -0-2-3--3-0-------------1-1-1-1------|
Comments