Scorpions - Someone To Touch Chords & Tabs

 

Someone To Touch Chords & Tabs

Scorpions Chords & Tabs

Version: 1 Type: Tab 0 ratings
1 star 2 stars 3 stars 4 stars 5 stars
comments

Someone To Touch Tab

SOMEONE TO TOUCH
ALBUM: FACE THE HEAT
STANDARD TUNING

INTRO RIFF
e-------------------|
b-------------------|
g--------2----------|
D----3-5---5-3-5----|
A--5----------------|
E----------------3--|

VERSE
           pm
e---------------------------|
b---------------------------|
g------------------7-5-7-5--|
D--5-5-3-3---------7-5-7-5--|
A--5-5-3-3---------5-3-5-3--|
E--3-3-3-1-1-1-1-1----------|

PRE CHORUS
e------------------|
b------------------|
g---------------7--|
D--9--2--9--10--7--|
A--9--2--9--10--5--|
E--7--0--7---8-----|

CHORUS
e---------------|
b---------------|
g------------7--|
D--2--10--5--7--|
A--2--10--5--5--|
E--0---8--3-----|

TO VERSE
e------------|
b------------|
g------------|
D--2--10--9--|
A--2--10--9--|
E--0---8--7--|
[ Tab from: http://www.guitartabs.cc/tabs/s/scorpions/someone_to_touch_tab.html ]
TO SOLO
e-----------------------|
b-----------------------|
g-----5-----5-----5--4--|
D--2--5--2--5--2--5--4--|
A--2--3--2--3--2--3--2--|
E--0-----0-----0--------|

RHYTHM FOR SOLO
Palm mute F powerchord 4 measures
Palm mute G powerchord 2 measures
Palm mute A powerchord 2 measures

OUTRO
e---------|
b---------|
g---------|
D--2--10--|
A--2--10--|
E--0---8--|



SONG STRUCTURE
Intro 1x
Verse 4x
Intro 1x
Verse 4x
Intro 1x
Verse 4x
Intro 1x
Pre Chorus 2x
Chorus 4x
To verse 1x
Verse 4x
Intro 1x
Verse 4x
Intro 1x
Pre Chorus 2x
Chorus 4x
To solo 1x
solo
Intro 1x
Pre Chorus 2x
Chorus 4x
Outro to fade


Questions, comments, requests for other heavy metal / hard rock tabs, email me at cadams@nationi.net

Please distribute this tab freely. I haven't seen the tab for this awesome Scorpions tune on any website.
Comments