Scorpions - Ship Of Fools Chords & Tabs

 

Ship Of Fools Chords & Tabs

Scorpions Chords & Tabs

Version: 1 Type: Bass Tab 0 ratings
1 star 2 stars 3 stars 4 stars 5 stars
comments

Ship Of Fools Bass Tab

Scorpions
Ship Of Fools
Face The Heat

Intro:
G|-------------------------------01------------------------1-11-|
D|--------222222242-------2222224---------222222242--4-2-4------|
A|-4444444---------4444444---------4444444----------------------|
E|--------------------------------------------------------------|

Verse:
G|-------------------------------0-1---------------------------|
D|--------------2-2-2-2-2-2-2-4-2----------------2-2-2-2-2-2-4-|
A|-4-4-4-4-4-4-4--------------------4-4-4-4-4-4-4--------------|
E|-------------------------------------------------------------|
[ Tab from: http://www.guitartabs.cc/tabs/s/scorpions/ship_of_fools_btab.html ]
Pre-chorus:
G|-------------1111----111122224444------------111-----------------|
D|-111133334444----4444------------111133334444---1----------------|
A|-----------------------------------------------------------------|
E|-------------------------------------------------444444244444444-|

Chorus:
G|-----------------------------------------------------111122224444-|
D|-444444420000000244444242000020--44444242000000024444-------------|
A|-------------------------------42---------------------------------|
E|------------------------------------------------------------------|

Bridge:
G|---------------------------------------------------|
D|--------2-222242-------2-22242---------------------|
A|------------------------------42-------------------|
E|-4444424--------4-44444---------4-2222222222222222-|

Ending:
G|-67767-67-67-6-7-677-67-67-67-6-7-6-4-------|
D|-----------------------------------7-7-6--4-|
A|----------------------------------------7---|
E|--------------------------------------------|
Comments