Scorpions - Send Me An Angel Chords & Tabs

 

Send Me An Angel Chords & Tabs

Scorpions Chords & Tabs

Version: 6 Type: Tab 0 ratings
1 star 2 stars 3 stars 4 stars 5 stars
comments

Send Me An Angel Tab

Send Me An Angel
Performed by The Scorpions
Tabbed by Ango Frederiksen

This is my version of "Send Me An Angel"

Solo:
|-------------------------------------------------------------|
|--11--12--14--12--11--9--11--12--11--15b16--15b16--15b16r15--|
|-------------------------------------------------------------|
|-------------------------------------------------------------|
|-------------------------------------------------------------|
|-------------------------------------------------------------|
[ Tab from: http://www.guitartabs.cc/tabs/s/scorpions/send_me_an_angel_tab_ver_6.html ]
|-------------------------------------------------|
|--12----------11--12--14--12--11--9--11--12--11--|
|------13-----------------------------------------|
|----------13-------------------------------------|
|-------------------------------------------------|
|-------------------------------------------------|

|--22b23--22b23--22b23r22--19--18--16--19--16--19--18--|
|------------------------------------------------------|
|------------------------------------------------------|
|------------------------------------------------------|
|------------------------------------------------------|
|------------------------------------------------------|
Comments