Scorpions - Send Me An Angel Chords & Tabs

 

Send Me An Angel Chords & Tabs

Scorpions Chords & Tabs

Version: 4 Type: Tab 0 ratings
1 star 2 stars 3 stars 4 stars 5 stars
comments

Send Me An Angel Tab

   
#----------------------------------PLEASE NOTE----------------------------------#
# This file is the author's own work and represents their interpretation of the #
# song. You may only use this file for private study, scholarship, or research. #
#-------------------------------------------------------------------------------#
once again i found this tab on an other site.
please note that it may need some corrections.
hope you enjoy it
ghislaindevliegher@hotmail.com

Send me an angel-Scorpions

I know that there are mistakes in the solo, but I think its sounds good
with the mistakes


Tuned down one half step
Fig.1:
   Em      Cmaj7    D      Bm7 
1:---0-------0----------------------------------------------
2:-----0-------0------3-------3-----------------------------
3:-------0-------0------2-------2---------------------------
4:-2----------------------4-------4-------------------------
5:---------3--------5-------2-------------------------------
6:----------------------------------------------------------

   Em      Cmaj7   D
1:---0-------0----------------------------------------------
2:-----0-------0-----------3--------------------------------
3:-------0-------0-----2-------2----------------------------
4:-2-----------------4---4---4---4--------------------------
5:---------3-------5----------------------------------------
6:----------------------------------------------------------

Fig.2:
   Em      Cmaj7   Em/B    G6
1:---0-------0-------0-------0------------------------------
2:-----0-------0-------0-------0----------------------------
3:-------0-------0-------0-------0--------------------------
4:-2--------------------------------------------------------
5:---------3-------2----------------------------------------
6:-------------------------3--------------------------------

   Em      Cmaj7   D 
1:---0-------0----------------------------------------------
2:-----0-------0-----------3--------------------------------
3:-------0-------0-----2-------2----------------------------
4:-2-----------------4---4---4---4--------------------------
5:---------3-------5----------------------------------------
6:----------------------------------------------------------

Fig.3:
   F#m             E
1:---------2---------------0--------------------------------
2:-----2-------2-------0-------0----------------------------
3:---2---2---2---2---1---0---1---1--------------------------
4:-4---------------2----------------------------------------
5:----------------------------------------------------------
6:----------------------------------------------------------

   C#m              D       E
1:----------------------------------------------------------
2:---------2------------------------------------------------
3:-----1-------1--------2-------4---------------------------
4:---2---2---2---2----4---4---6---6-------------------------
5:-4----------------5-------7-------------------------------
6:----------------------------------------------------------

Fig.4:
   F#m     Dmaj7   E       C#m7
1:---2-------2----------------------------------------------
2:-----2-------2-----5-------5------------------------------
3:-------2-------2-----4-------4----------------------------
4:-4-------0-------------6-------6--------------------------
5:-----------------7-------4--------------------------------
6:----------------------------------------------------------

   F#m     Dmaj7   E  
1:---2-------2-------------0--------------------------------
2:-----2-------2-------0-------0----------------------------
3:-------2-------2---1---1---1---1--------------------------
4:-4-------0-------2----------------------------------------
5:----------------------------------------------------------
6:----------------------------------------------------------

Fig.5:
   F#m     Dmaj7   F#m/C# A6
1:---2-------2-------2-------2------------------------------
2:-----2-------2-------2-------2----------------------------
3:-------2-------2-------2-------2--------------------------
4:-4-------0------------------------------------------------
5:-----------------4-------0--------------------------------
6:----------------------------------------------------------

   F#m     Dmaj7   E
1:---2-------2-------------0--------------------------------
2:-----2-------2-------0-------0----------------------------
3:-------2-------2---1---1---1---1--------------------------
4:-4-------0-------2----------------------------------------
5:----------------------------------------------------------
6:----------------------------------------------------------

Fig.6:
   G#m             F#
1:---------4---------------2--------------------------------
2:-----4-------4-------2-------2----------------------------
3:---4---4---4---4---3---3---3---2--------------------------
4:-6---------------4----------------------------------------
5:----------------------------------------------------------
6:----------------------------------------------------------

   D#m              E        F#
1:----------------------------------------------------------
2:---------4------------0--------2--------------------------
3:-----3-------3------1---1----3---3------------------------
4:---4---4---4---4--2--------4------------------------------
5:-6--------------------------------------------------------
6:----------------------------------------------------------
[ Tab from: http://www.guitartabs.cc/tabs/s/scorpions/send_me_an_angel_tab_ver_4.html ]
--------------------------------------------------------------------------
Theres an keyboard through the song.It plays the normal chords.
Gtr.1=acoustic guitar(all Rhytmn-figures)
Gtr.2=electric guitar[clean](all powerchords[w/distortion] so 
the                              chord-symbols, fills, solos)
                     

Intro w/gtr.1:
Fig.1 (4x)

Verse I w/gtr.1:
Fig.2 (4x)

The wise man said: "just walk this way
                        E5 (x688xx)
To the dawn of the light
The wind will blow into your face
As the years pass you by
                                E5
Hear this voice from deep inside
It's the call of your heart
                                 E5
Close your eyes and you will find
A passage out of the dark"

Chorus w/gtr.1:
Fig.3 (2x)

          E5
Here I am           will you send me an angel
         (here I am)                       G----------/11---
         E5
Here I am           in the land of the morning star
         (here I am)

Interlude w/gtr.1:
Fig.4(2x)

G:-9----/11---
D:---11-------

Verse II w/gtr.1:
Fig.5 (2x)

The wise man said: "Just find your place
                      G------10b11-------
In the eye of the storm
                            F#5 (x,9,11,11,x,x)
Seek the roses along the way
Just beware of the thorns"

Chorus:
Fig.6(2x)
G#5      F#5    D#5          E          F#
Here I am           will you send me an angel
         (here I am)                             (solo starting here)
G#5      F#5    D#5          E          F#     (E5)
Here I am           in the land of the morning staaa aaa aa aa aa aar
         (here I am)

Solo:
Fig.1(2x)

1:-----------------------------------------------------------------
2:------12--13--15--12--10--12--13--12--15b17--15b17--15b16r17-----
3:-----------------------------------------------------------------
4:-----------------------------------------------------------------
5:-----------------------------------------------------------------
6:--/12------------------------------------------------------------

1:----------------------------------------------------
2:--15----------12--13--15--13--12--10--12--13--12----
3:------14--------------------------------------------
4:----------14----------------------------------------
5:----------------------------------------------------
6:----------------------------------------------------
                                                    
1:--22b24--22b24--22b24r22--20--19--20--17--20--19-fade-out-----
2:--------------------------------------------------------------
3:--------------------------------------------------------------
4:--------------------------------------------------------------
5:--------------------------------------------------------------
6:--------------------------------------------------------------

Verse III w/gtr.1:
Fig.2 (4x)

The wise man said: "Just raise yor hand
And reach out for the spell
                              G---9--7--4(1/4 bend)--7--9--
Find the door to the promised land
Just believe in yourself
Hear this voice from deep inside
It's the call of your heart
Close your eyes and you will find
                           G---9h12h14b15--12p9--
The way out of the dark"

Chorus w/gtr.1(Repeat 4x and fade out):
Fig.3(8x)

F#5    E5        C#5         D5         E5
Here I am           will you send me an angel
         (here I am)
G#5      F#5    D#5          E          F#
Here I am           in the land of the morning star
         (here I am)

Outro-Solo after the fourth time:

1:------------------------------------------------
2:--14----------17p15p14--------------------------
3:------------------------------------------------
4:------------------------------------------------
5:------------------------------------------------
6:------------------------------------------------

1:------------------------------------------------
2:--14----------17p15p14--------------------------
3:------------------------------------------------
4:------------------------------------------------
5:------------------------------------------------
6:------------------------------------------------
                          w/bar................................
1:--------------------------------------------------------------
2:-17b19-17b19-17----17b19--------------------------------------
3:----------------18--------------------------------------------
4:--------------------------------------------------------------
5:--------------------------------------------------------------
6:--------------------------------------------------------------
                                  .......
1:-----------------------20b22------------19--16--17-16---------
2:-21b22----------19-22---------------------------------19------
3:---------------------------------------------------------18---
4:--------------------------------------------------------------
5:--------------------------------------------------------------
6:--------------------------------------------------------------
         ******************         ............................
1:--------------------------12----------------------20b21--------
2:-17-19-----------------------14b16---------17-----------------
3:--------------------------------------------------------------
4:--------------------------------------------------------------
5:--------------------------------------------------------------
6:--------------------------------------------------------------
  .....
1:-----17-16-17--17-16------------------------------------------
2:---------------------19---------------------------------------
3:--------------------------------------------------------------
4:--------------------------------------------------------------
5:--------------------------------------------------------------
6:--------------------------------------------------------------

*I think this passage is wrong or not heard complete
Comments