Scorpions - Send Me An Angel Chords & Tabs

 

Send Me An Angel Chords & Tabs

Scorpions Chords & Tabs

Version: 3 Type: Tab 0 ratings
1 star 2 stars 3 stars 4 stars 5 stars
comments

Send Me An Angel Tab

   
#----------------------------------PLEASE NOTE---------------------------------#
#This file is the author's own work and represents their interpretation of the #
#song. You may only use this file for private study, scholarship, or research. #
#------------------------------------------------------------------------------#

From ph_dc61@ingprog.material.uu.se Thu May  8 10:12:49 1997
Date: Mon, 21 Apr 1997 08:24:19 +0200
From: elev 
To: guitar@olga.net
Subject: TAB: send me an angel, by Scorpions

Uppsala  07:24 1997-01-10


                 SEND ME AN ANGEL

                    SCORPIONS


INTRO (and verses):
    
-----------------------------------------------------------
-----------------------------------------------------------
------8-----------8-----------6------------6---------------
---------8-----------8-----------6------------6------------
---6--------9-----------9-----------8------------8---------
---------------7-----------9------------6------------------

----------------------------------------------------
----------------------------------------------------
------8-----------8--------------------6------------
---------8-----------8-----------6-----------6------
---6--------9-----------9-----8-----8-----8-----8---
---------------7-----------9------------------------

(the actual timing I know nothing about (goes for the whole
tab). listen to the record to get the hang of it (Oh,where 
did I see that quote before:-) ))

CHORUS (and outro):
(Powerchords used in the 2nd & 3rd chorus)

  F5 (x,8,10,10,x,x)            Eb5 (x688xx)
--------------------------------------------------------
-----------------9--------------------------8-----------
---------10-------------10------------8-----------8-----
-----10------10-----10------10-----8-----8-----8-----8--
--8-----------------------------6-----------------------
--------------------------------------------------------
[ Tab from: http://www.guitartabs.cc/tabs/s/scorpions/send_me_an_angel_tab_ver_3.html ]
  C5 (x355xx)  (x466xx)-->C#5         Eb5 (x688xx)
------------------------------------------------------
--------------4---------------------------------------
--------5-----------5-----------6-----------8---------
-----5-----5-----5-----5-----6-----6-----8-----8------
--3-----------------------4-----------6---------------
------------------------------------------------------

  F5                            Eb5
--------------------------------------------------------
-----------------9--------------------------8-----------
---------10-------------10------------8-----------8-----
-----10------10-----10------10-----8-----8-----8-----8--
--8-----------------------------6-----------------------
--------------------------------------------------------

  C5                      C#5         Eb5
------------------------------------------------------
--------------4---------------------------------------
--------5-----------5-----------6-----------8---------
-----5-----5-----5-----5-----6-----6-----8-----8------
--3-----------------------4-----------6-----------8*-
------------------------------------------------------

When the last note (marked "*") is played the verse riff starts over
again (witch means you'll have to have a friend tooling along on a
second guitar, or, if you live nearby a neuclear plant, you might
be able to play two guitars at once :-).) In the outro, just skip the
marked (*) note and start from the top. 

SOLO (can you tab it better? U know where to find me...) :

-----------------------------------------------------------------
-------11--12--14--12--11--9--11--12--11--15b16--15b16--15b16r15-
-----------------------------------------------------------------
-----------------------------------------------------------------
-----------------------------------------------------------------
--/11------------------------------------------------------------

----------------------------------------------------
--12----------11--12--14--12--11--9--11--12--11-----
------13--------------------------------------------
----------13----------------------------------------
----------------------------------------------------
----------------------------------------------------

--22b23--22b23--22b23r22--19--18--16--19--16--19--18--
------------------------------------------------------
------------------------------------------------------
------------------------------------------------------
------------------------------------------------------
------------------------------------------------------
Comments