Scorpions - Send Me An Angel Chords & Tabs

 

Send Me An Angel Chords & Tabs

Scorpions Chords & Tabs

Version: 1 Type: Bass Tab 0 ratings
1 star 2 stars 3 stars 4 stars 5 stars
comments

Send Me An Angel Bass Tab

Send Me An Angel by the Scorpions

This is my first shot at writing bass tabs. So I hope you can understand 
them.  I've played it through many times to be sure this is right.  If you 
find any mistakes, please let me know.

Intro:  (repeat 4X)
|-----------------------|
|---1---------1---------|
|-----2-4-1-----2--4----|
|-----------------------|

Riff 1: (repeat 4X)
Wise man said just walk this way...

|-----------------------|
|--1---------1----------|
|----2--1------2--4-----|
|----------2------------|

Riff 2:  (repeat 2X)
(Chorus)
Here I am.......

|-----------------------|
|--3--1-----------------|
|--------3--4--6--------|
|-----------------------|


Riff 3:  (repeat 2X)

|-----------------------|
|--3-----------3--------|
|----4--6--3------4--6--|
|-----------------------|
[ Tab from: http://www.guitartabs.cc/tabs/s/scorpions/send_me_an_angel_btab.html ]
Riff 4:   ( repeat 2X)
Wise man said just find your place...

|-----------------------|
|--3-----------3--------|
|-----4--3--------4--6--|
|-----------4-----------|


Riff 5:  (repeat 2X)
(chorus)
Here I am.......
|-----------------------|
|-----------------------|
|-----------5--5-6--8---|
|--3--1-1---------------|


Riff 6:   (repeat 2X)

|-----------------------|
|--1----------1-1-------|
|----2--4--1------2--4--|
|-----------------------|


Riff 4:  (repeat 4X)

|-----------------------|
|--1-----------1--------|
|-----2--1--------2--4--|
|----------2------------|


Riff 2:  (repeat until the end of song)
(chorus)
Here I am......
|-----------------------|
|--3--1-----------------|
|---------3--4--6-------|
|-----------------------|

*****************************************
Any comments?
Femia Swiney     FMSwiney@aol.com
Comments