Scorpions - Sails Of Charon Chords & Tabs

 

Sails Of Charon Chords & Tabs

Scorpions Chords & Tabs

Version: 1 Type: Bass Tab 0 ratings
1 star 2 stars 3 stars 4 stars 5 stars
comments

Sails Of Charon Bass Tab

[Bass Tabulature]
Sails of Charon -- Scorpions (Taken By Force - 1977)
Music :Ulrich Roth
Lyrics:Ulrich Roth

I wrote this tab which is actually MY version -as I play it-.
Any suggestion is welcome : write to abg_roni@hotmail.com

I've included the timing for the song coz i didnt actually count the number
of repetitions for each part so just follow the timing....thats all...enjoy!!

Roni Demaio, May 2003


  Intro Solo.....00:22>>
G:|------------------------------------------------------------------------------|
D:|------------------------------------------------------------------------------|
A:|----------------------3--2--5--3--3/2--2--2--3/2--2--2--3--3/2--2--2--3--3--3-|
E:|------------------------------------------------------------------------------|



G:|------------------------------------------------------------------------------|
D:|------------------------------------------------------------------------------|
A:|3/2--2--2--3/2--2--2--3--3/2--2--2--3--3--3-----------------------------------| 11 times
E:|------------------------------------------------------------------------------|



   01:16
G:|------------------------------------------------|
D:|------------------------------------------------|
A:|2--2--0-2-33-2--2--0-3-00-----------------------| 4 times
E:|------------------------------------------------|

G:|-----------------------------------------|
D:|-----------------------------------------|
A:|2--2--0-2-33-----------------------------|
E:|-------------7-555-333-22323-------------|



   01:42
G:|------------------------------------------------|
D:|------------------------------------------------|
A:|2--2--0-2-33-2--2--0-3-00-----------------------| 4 times
E:|------------------------------------------------|

G:|-----------------------------------------|
D:|-----------------------------------------|
A:|2--2--0-2-33-----------------------------|
E:|-------------7-555-333-22323-------------|



  02:00
G:|-----------------------------------------|
D:|-----------------------------------------|
A:|2/3--22-3--------------------------------| 4 times
E:|---------2-2-3-5-2-3---------------------|



  02:08
G:|------------------------------------------------|
D:|------------------------------------------------|
A:|2--2--0-2-33-2--2--0-3-00-----------------------|
E:|------------------------------------------------|

G:|-----------------------------------------|
D:|-----------------------------------------|
A:|2--2--0-2-33-----------------------------|
E:|-------------7-555-333-22323-------------|



G:|------------------------------------------------|
D:|------------------------------------------------|
A:|2--2--0-2-33-2--2--0-3-00-----------------------|
E:|------------------------------------------------|
[ Tab from: http://www.guitartabs.cc/tabs/s/scorpions/sails_of_charon_btab.html ]
G:|-----------------------------------------|
D:|-----------------------------------------|
A:|2--2--0-2-33-----------------------------|
E:|-------------7-555-333-22323-------------|



  02:26
G:|-----------------------------------------|
D:|-----------------------------------------|
A:|2/3--22-3--------------------------------| 4 times
E:|---------2-2-3-5-2-3---------------------|



  02:34
G:|------------------------------------------------|
D:|------------------------------------------------|
A:|2--2--0-2-33-2--2--0-2-3-3-0-0-0----------------|
E:|------------------------------------------------|

G:|-----------------------------------------|
D:|-----------------------------------------|
A:|2--2--0-2-33-----------------------------|
E:|-------------7-555-333-22323-------------|



  02:43
G:|------------------------------------------------|
D:|------------------------------------------------|
A:|2--2--0-2-33-2--2--0-3-00-----------------------|
E:|------------------------------------------------|

G:|-----------------------------------------|
D:|-----------------------------------------|
A:|2--2--0-2-33-----------------------------|
E:|-------------7-555-333-33533-------------|......solo



  03:05 []ring
G:|-----------------------------------------|
D:|-----------------------------------------|
A:|[3]-[5]-[7]-[9]-[10]-[12]-[14]-----------|
E:|-----------------------------------------|



  03:13
G:|------------------------------------------------|
D:|------------------------------------------------|
A:|2--2--0-2-33-2--2--0-3-00-----------------------|
E:|------------------------------------------------|

G:|-----------------------------------------|
D:|-----------------------------------------|
A:|2--2--0-2-33---2/14-14-14-14-14-14-14-14-|
E:|-----------------------------------------|



  03:22
G:|------------------------------------------------|
D:|------------------------------------------------|
A:|2--2--0-2-33-2--2--0-3-00-----------------------|
E:|------------------------------------------------|

G:|-----------------------------------------|
D:|-----------------------------------------|
A:|2--2--0-2-33-----------------------------|
E:|-------------7-555-333-33533-------------|



  03:31
G:|-----------------------------------------|
D:|-----------------------------------------|
A:|2/3--22-3--------------------------------| 4 times
E:|---------2-2-3-5-2-3---------------------|



  03:40
G:|-----------------------------------------|
D:|-----------------------------------------|
A:|4/5--44-5--------------------------------| 3 times
E:|---------4-4-5-7-4-5---------------------|

G:|-----------------------------------------|
D:|-----------------------------------------|
A:|4/5--44-5--------------------------------|
E:|---------4-4-5-7-4-5..............-------|

END
Comments