Scorpions - Rock You Like A Hurricane Chords & Tabs

 

Rock You Like A Hurricane Chords & Tabs

Scorpions Chords & Tabs

Version: 9 Type: Tab 0 ratings
1 star 2 stars 3 stars 4 stars 5 stars
comments

Rock You Like A Hurricane Tab

   
scorpions rock! i can play this solo on my guitar yay!
e-12---15b(17)-15b(17)---------------------------------------------------|
b-15b(17)------------------------12h15p12t20/p12h15p12t20/p12h15p12t20/p-|
g----------------------14b(16)~------------------------------------------|
d------------------------------------------------------------------------|
a------------------------------------------------------------------------|
e------------------------------------------------------------------------|
[ Tab from: http://www.guitartabs.cc/tabs/s/scorpions/rock_you_like_a_hurricane_tab_ver_9.html ]
e------------------------------------------------------------------------|
b-12h15p12--------------------------------------------------15-15-12-12--|
g----------14b(16)~-----------------------12-12-14-14-16-16--------------|
d----------------------------12-12-14-14---------------------------------|
a---------------------14-14----------------------------------------------|
e------------------------------------------------------------------------|
                     semip.m.|==========================================|
e-------12-12-15b(17)~-----------12--------------------------------------|
b-15-15------------------15b(17)~--15p12-----------14b(15)r(14)p12-------|
g----------------------------------------14p12-----14b(15)r(14)p12-------|
d----------------------------------------------14~-----------------14~---|
a------------------------------------------------------------------------|
e------------------------------------------------------------------------|
semip.m.|====|
e-------------------------------------------------------------------------|
b-14b(15)r(14)p12----14b(15)r(14)p12--------------------------------------|
g-14b(15)r(14)p12----14b(15)r(14)p12--------1--2--3-4~~-----7-9p7--9-11p9-|
d-----------------14~----------------14~-----------------/9-----/11-------|
a-------------------------------------------------------------------------|
e-------------------------------------------------------------------------|
                                        semip.h.|=====|
e--------------------------------------------------------17-20p17-----22p20-|
b------------------12-15p12-----15-17p15-----17-20p17-/20--------/22-20-----|
g----12-14p12----/12--------/16----------/19--------------------------------|
d-/14---------13------------------------------------------------------------|
a---------------------------------------------------------------------------|
e---------------------------------------------------------------------------|
due to the fact that standard fender stratocasters do not have a 22nd fret,
i was not able to transcribe the rest of the solo. oh well.
Comments