Scorpions - Rock You Like A Hurricane Chords & Tabs

 

Rock You Like A Hurricane Chords & Tabs

Scorpions Chords & Tabs

Version: 8 Type: Tab 0 ratings
1 star 2 stars 3 stars 4 stars 5 stars
comments

Rock You Like A Hurricane Tab

   
-------------------------------------------------------------------------------
			     Rock You Like A Hurricane - The Scorpions
-------------------------------------------------------------------------------
Tabbed by:Aaron Acosta
Email:LeperMessiah28@netscape.net

Tuning:Standard

opening riff:
e|------------------------------------------------|
B|------------------------------------------------|
G|------------------------------------------------|
D|-9-9-9-9/---------5-5-5--9-9-9-9/---------5-7-7-|
A|-7-7-7-7/-5-5-7-7-3-7-7--7-7-7-7/-5-5-7-7-3-5-5-|
E|----------3-3-5-5-----------------3-3-5-5-------|

intro solo:
e|---------0---0---0---------0---0---0---------7---7---7---------7---7---|
B|-5-5-5-5---5---5---5-5-5-5---5---5---5-5-5-5---5---5---5-5-5-5---5---5-|
G|-----------------------------------------------------------------------|
D|-----------------------------------------------------------------------|
A|-----------------------------------------------------------------------|
E|-----------------------------------------------------------------------|

e|5-7-5-------------------------|---15----15-15p14----------15----19-17---17~-|
B|------8-7-5-8-7-5-8-7-5-------|15^---17~---------17-15-15^---17~-----20-----|
G|------------------------7-5-7-|---------------------------------------------|
D|------------------------------|---------------------------------------------|
A|------------------------------|---------------------------------------------|
E|------------------------------|---------------------------------------------|

e|22^-22^-22^-22^-19-22-20-19-17-20-19-17-15-19-17-15-17-19-|
B|----------------------------------------------------------|
G|----------------------------------------------------------|
D|----------------------------------------------------------|
A|----------------------------------------------------------|
E|----------------------------------------------------------|

e|---12----12----12----12----12----12----|---------------------------------|
B|15^---15^---15^---15^---15^---15^---15^|12-13-15-13-12-------------------|
G|---------------------------------------|---------------14-12-11-14-12-11-|
D|---------------------------------------|---------------------------------|
A|---------------------------------------|---------------------------------|
E|---------------------------------------|---------------------------------|

e|------------|----------------------------------------------------------<12--|
B|------------|-----------------------------------------------------<12><7>---|
G|------------|---------------------------------------------------<12>--------|
D|14-12-14-12-|---------------------------------------------------------------|
A|------------|3-3-3-7-7-7-7-3-3-3-7-7-5-5-5-3-3-3-7-7-7-7-3-3-3-5-5-5-5------|
E|------------|---------------------------------------------------------------|
             PM- - - - - - - - - - - - - - - - - - - - - - - - - - - - -

                                                    2nd time play
e|-------------------------------------------------|-------|this
B|-------------------------------------------------|-------|
G|-------------------------------------------------|-------|
D|5-5-5-9-9-9-9-5-5-5-9-9-7-7-7-5-5-5-9-9-9-9-5-5-5|-7-let-|
A|3-3-3-7-7-7-7-3-3-3-7-7-5-5-5-3-3-3-7-7-7-7-3-3-3|-5-ring|
E|-------------------------------------------------|-------|
PM- - - - - - - - - - - - - - - - - - - - - - - - -

play opening riff again
[ Tab from: http://www.guitartabs.cc/tabs/s/scorpions/rock_you_like_a_hurricane_tab_ver_8.html ]
e|-----------------------------------------------------------|
B|-----------------------------------------------------------|
G|-----------------------------------------------------------|
D|-----------------------------------------------------------|
A|-3-3-3-7-7-7-7-3-3-3-7-7-5-5-5-3-3-3-7-7-7-7-3-3-3-5-5-5-5-|
E|-----------------------------------------------------------|
PM - - - - - - - - - - - - - - - - - - - - - - - - - - - - -

                                                         solo fill:
e|--------------------------------------------------|---|-12^-12-12-12-12-|
B|--------------------------------------------------|---|-----------------|
G|--------------------------------------------------|---|-----------------|
D|5-5-5-9-9-9-9-5-5-5-9-9-7-7-7-5-5-5-9-9-9-9-5-5-5-|-7-|-----------------|
A|3-3-3-7-7-7-7-3-3-3-7-7-5-5-5-3-3-3-7-7-7-7-3-3-3-|-5-|-----------------|
E|--------------------------------------------------|---|-----------------|

                main solo:           T           T            T
e|----------12-|---------17^-17^---|---------------------------------|
B|-15p12h15----|-17^-17^-----------|-17p15-17p15-17\p15-17p15-17\p15-|do
G|-------------|----------------14~|---------------------------------|this
D|-------------|-------------------|---------------------------------|a few
A|-------------|-------------------|---------------------------------|times
E|-------------|-------------------|---------------------------------|

Tremolo picking
e|--------------------------------(7)-(10)-(12)-(15)-18^-------|
B|---------------(8)-(10)-(8)-(10)-----------------------------|
G|--------(7)-(9)---------------------------------------19^-19~|
D|-(7)-(9)-----------------------------------------------------|
A|-------------------------------------------------------------|
E|-------------------------------------------------------------|

e|-------------------------------------|----------------------|
B|-15p14p12----15p14p12----15p14p12----|----------------------|
G|-15p14p12-14-15p14p12-14-15p14p12-14-|----------------12-14-|
D|----------14----------14----------14-|----------12-14-------|
A|-------------------------------------|-12-12-14-------------|
E|-------------------------------------|----------------------|

e|----------------------------------------------------------------22^-------|
B|-------------------------------------------------------20-22-22^---22^-22~|
G|-------------------------------12-14-------14-16-19-21--------------------|
D|-------12-14-------14-17-12-14-------14-17--------------------------------|
A|-12-14-------14-17--------------------------------------------------------|
E|--------------------------------------------------------------------------|

e|-------------------------19-22^-22^~|------------------|------------22^-22--|
B|------------------------------------|------------------|--------------------|
G|------------------------------------|---19----19----19-|------16-18---------|
D|----------------17-19-20------------|19----19----19----|17-19---------------|
A|-12-13-14-17-19---------------------|------------------|--------------------|
E|------------------------------------|------------------|--------------------|

e|19-22-20-19-17-20-19-17-15-19-17-15-17-19-|----------------|
B|------------------------------------------|---8-10-12-10-8-|
G|------------------------------------------|-9--------------|play
D|------------------------------------------|----------------|three times
A|------------------------------------------|----------------|
E|------------------------------------------|----------------|

e|---------------------------|----|
B|---------------------------|-7^~|
G|---0-4p2p0h4p2p0-----4^-7^-|----|
D|-----------------2^-5^-----|----|
A|-7-------------------------|----|
E|---------------------------|----|

thats it, if you have any questions you can email me


|(#) rapidly picking up and down
| T  tape with finger
|<>  harmonic
| /  slide up
| \  slide down
| h  hammer-on
| p  pull-off
| ~  vibrato
| x  Mute note
===============================================================================
Comments