Scorpions - Rock You Like A Hurricane Chords & Tabs

 

Rock You Like A Hurricane Chords & Tabs

Scorpions Chords & Tabs

Version: 7 Type: Tab 0 ratings
1 star 2 stars 3 stars 4 stars 5 stars
comments

Rock You Like A Hurricane Tab

   
I tell you in advance that it's only 90% correct.
I accept requests for every scorpions songs and others too, I also take coplaints,
compliments, corrections and blunt objects, just send it over to: Drunkirishfish@yahoo.com

Chorus and intro Chord Progression:

  E5      G5    A5  C5 D5   
------------------------------------------------------------------------------
------------------------------------------------------------------------------
-9-9-9--------------5--7-7----------------------------------------------------
-9-9-9---5-5---7-7--5--7-7----------------------------------------------------
-7-7-7---5-5---7-7--3--5-5----------------------------------------------------
---------3-3---5-5------------------------------------------------------------


Intro Solo:                                                   

-00000-00-00-0000-00000-00-00-0000-0-0-0-0-0--0-0--0-0--0-0-0-0---------------
-55555-55-55-5555-55555-55-55-5555-1212121212-1212-1212-12121212--------------
------------------------------------------------------------------------------
------------------------------------------------------------------------------
------------------------------------------------------------------------------
------------------------------------------------------------------------------
                                                                              
[ Tab from: http://www.guitartabs.cc/tabs/s/scorpions/rock_you_like_a_hurricane_tab_ver_7.html ]
-0-0-0-0-0--0-0---------------------------------------------------------------
-1212121212-1212-11h12p11p9---------------------------------------------------
---------------------------12p11p9--------------------------------------------
----------------------------------12p0----------------------------------------
------------------------------------------------------------------------------
------------------------------------------------------------------------------


----------------15-14h15p14p12----------15-------17b18r17-15-17-15------------
-------15----------------------15-15p17----15b17------------------------------
-14b16----14b16---------------------------------------------------------------
------------------------------------------------------------------------------
------------------------------------------------------------------------------
------------------------------------------------------------------------------
                                                                              

-20b22-20b22-20b2220b22-17201917151917151417151412/20-12-------12-------12----
---------------------------------------------------------15b17----15b17-------
------------------------------------------------------------------------------
------------------------------------------------------------------------------
------------------------------------------------------------------------------
------------------------------------------------------------------------------
                                                                              

------12-----12-----12-----12-1512--------------------------------------------
-15b17--15b17--15b17--15b17-------1512----------------------------------------
--------------------------------------151412----------------------------------
--------------------------------------------1412------------------------------
------------------------------------------------141312------------------------
------------------------------------------------------1512/10-----------------
Comments