Scorpions - Rock You Like A Hurricane Chords & Tabs

 

Rock You Like A Hurricane Chords & Tabs

Scorpions Chords & Tabs

Version: 6 Type: Tab 0 ratings
1 star 2 stars 3 stars 4 stars 5 stars
comments

Rock You Like A Hurricane Tab

Scorpions
Rock You Like A Hurricane
awahl63


e|------------------------|
B|------------------------|
G|-9-9-9----------5--7-7--|
D|-9-9-9--5-5--7--5--7-7--|
A|-7-7-7--5-5--7--3--5-5--|
E|--------3-3--5----------|

e|------------------------|
B|------------------------|
G|-9-9-9----------5--7-7--|
D|-9-9-9--5-5--7--5--7-7--|
A|-7-7-7--5-5--7--3--5-5--|
E|--------3-3--5----------|

e|------------------------|
B|------------------------|
G|-9-9-9----------5--7-7--|
D|-9-9-9--5-5--7--5--7-7--|
A|-7-7-7--5-5--7--3--5-5--|
E|--------3-3--5----------|

e|------------------------|
B|------------------------|
G|-9-9-9----------5--7-7--|
D|-9-9-9--5-5--7--5--7-7--|
A|-7-7-7--5-5--7--3--5-5--|
E|--------3-3--5----------|

e|------------------------|
B|------------------------|
G|-9-9-9----------5--7-7--|
D|-9-9-9--5-5--7--5--7-7--|
A|-7-7-7--5-5--7--3--5-5--|
E|--------3-3--5----------|

e|------------------------|
B|------------------------|
G|-9-9-9----------5--7-7--|
D|-9-9-9--5-5--7--5--7-7--|
A|-7-7-7--5-5--7--3--5-5--|
E|--------3-3--5----------|

e|------------------------|
B|------------------------|
G|-9-9-9----------5--7-7--|
D|-9-9-9--5-5--7--5--7-7--|
A|-7-7-7--5-5--7--3--5-5--|
E|--------3-3--5----------|

e|------------------------|
B|------------------------|
G|-9-9-9----------5--7-7--|
D|-9-9-9--5-5--7--5--7-7--|
A|-7-7-7--5-5--7--3--5-5--|
E|--------3-3--5----------|

Palm Muted
e|------------------------|
B|------------------------|
G|------------------------|
D|------------------------|
A|-3-3-3--7-7-7-7-7--3-3-3|
E|------------------------|

Palm Muted
e|------------------------|
B|------------------------|
G|------------------------|
D|------------------------|
A|-7-7--5-5-5--3-3-3--7-7-|
E|------------------------|

Palm Muted
e|------------------------|
B|------------------------|
G|------------------------|
D|------------------------|
A|7-7--3-3-3--5-5-5-5-5---|
E|------------------------|

Palm Muted
e|------------------------|
B|------------------------|
G|------------------------|
D|------------------------|
A|-3-3-3--7-7-7-7-7--3-3-3|
E|------------------------|

Palm Muted
e|------------------------|
B|------------------------|
G|------------------------|
D|------------------------|
A|-7-7--5-5-5--3-3-3--7-7-|
E|------------------------|

Palm Muted
e|------------------------|
B|------------------------|
G|------------------------|
D|------------------------|
A|7-7--3-3-3--5-5-5-5-5---|
E|------------------------|

Palm Muted
e|------------------------|
B|------------------------|
G|------------------------|
D|------------------------|
A|-3-3-3--7-7-7-7-7--3-3-3|
E|------------------------|

Palm Muted
e|------------------------|
B|------------------------|
G|------------------------|
D|------------------------|
A|-7-7--5-5-5--3-3-3--7-7-|
E|------------------------|

Palm Muted
e|------------------------|
B|------------------------|
G|------------------------|
D|------------------------|
A|7-7--3-3-3--5-5-5-5-5---|
E|------------------------|

Palm Muted
e|------------------------|
B|------------------------|
G|------------------------|
D|------------------------|
A|-3-3-3--7-7-7-7-7--3-3-3|
E|------------------------|

Palm Muted
e|------------------------|
B|------------------------|
G|------------------------|
D|------------------------|
A|-7-7--5-5-5--3-3-3--7-7-|
E|------------------------|

Palm Muted
e|------------------------|
B|------------------------|
G|------------------------|
D|------------------------|
A|7-7--3-3-3--5-5-5-5-5---|
E|------------------------|

e|------------------------|
B|------------------------|
G|-9-9-9----------5--7-7--|
D|-9-9-9--5-5--7--5--7-7--|
A|-7-7-7--5-5--7--3--5-5--|
E|--------3-3--5----------|

e|------------------------|
B|------------------------|
G|-9-9-9----------5--7-7--|
D|-9-9-9--5-5--7--5--7-7--|
A|-7-7-7--5-5--7--3--5-5--|
E|--------3-3--5----------|

e|------------------------|
B|------------------------|
G|-9-9-9----------5--7-7--|
D|-9-9-9--5-5--7--5--7-7--|
A|-7-7-7--5-5--7--3--5-5--|
E|--------3-3--5----------|

e|------------------------|
B|------------------------|
G|-9-9-9----------5--7-7--|
D|-9-9-9--5-5--7--5--7-7--|
A|-7-7-7--5-5--7--3--5-5--|
E|--------3-3--5----------|

Palm Muted
e|------------------------|
B|------------------------|
G|------------------------|
D|------------------------|
A|-3-3-3--7-7-7-7-7--3-3-3|
E|------------------------|

Palm Muted
e|------------------------|
B|------------------------|
G|------------------------|
D|------------------------|
A|-7-7--5-5-5--3-3-3--7-7-|
E|------------------------|

Palm Muted
e|------------------------|
B|------------------------|
G|------------------------|
D|------------------------|
A|7-7--3-3-3--5-5-5-5-5---|
E|------------------------|

Palm Muted
e|------------------------|
B|------------------------|
G|------------------------|
D|------------------------|
A|-3-3-3--7-7-7-7-7--3-3-3|
E|------------------------|
[ Tab from: http://www.guitartabs.cc/tabs/s/scorpions/rock_you_like_a_hurricane_tab_ver_6.html ]
Palm Muted
e|------------------------|
B|------------------------|
G|------------------------|
D|------------------------|
A|-7-7--5-5-5--3-3-3--7-7-|
E|------------------------|

Palm Muted
e|------------------------|
B|------------------------|
G|------------------------|
D|------------------------|
A|7-7--3-3-3--5-5-5-5-5---|
E|------------------------|

e|------------------------|
B|------------------------|
G|--------9-9-9----------7|
D|--------9-9-9----------7|
A|0--3-3--7-7-7--0--3-3--5|
E|------------------------|

e|------------------------|
B|------------------------|
G|--------9-9-9----------7|
D|--------9-9-9----------7|
A|0--3-3--7-7-7--0--3-3--5|
E|------------------------|

e|------------------------|
B|------------------------|
G|-9-9-9----------5--7-7--|
D|-9-9-9--5-5--7--5--7-7--|
A|-7-7-7--5-5--7--3--5-5--|
E|--------3-3--5----------|

e|------------------------|
B|------------------------|
G|-9-9-9----------5--7-7--|
D|-9-9-9--5-5--7--5--7-7--|
A|-7-7-7--5-5--7--3--5-5--|
E|--------3-3--5----------|

e|------------------------|
B|------------------------|
G|-9-9-9----------5--7-7--|
D|-9-9-9--5-5--7--5--7-7--|
A|-7-7-7--5-5--7--3--5-5--|
E|--------3-3--5----------|

e|------------------------|
B|------------------------|
G|-9-9-9----------5--7-7--|
D|-9-9-9--5-5--7--5--7-7--|
A|-7-7-7--5-5--7--3--5-5--|
E|--------3-3--5----------|

e|------------------------|
B|------------------------|
G|-9-9-9----------5--7-7--|
D|-9-9-9--5-5--7--5--7-7--|
A|-7-7-7--5-5--7--3--5-5--|
E|--------3-3--5----------|

e|------------------------|
B|------------------------|
G|-9-9-9----------5--7-7--|
D|-9-9-9--5-5--7--5--7-7--|
A|-7-7-7--5-5--7--3--5-5--|
E|--------3-3--5----------|

e|------------------------|
B|------------------------|
G|-9-9-9----------5--7-7--|
D|-9-9-9--5-5--7--5--7-7--|
A|-7-7-7--5-5--7--3--5-5--|
E|--------3-3--5----------|

e|------------------------|
B|------------------------|
G|-9-9-9----------5--7-7--|
D|-9-9-9--5-5--7--5--7-7--|
A|-7-7-7--5-5--7--3--5-5--|
E|--------3-3--5----------|

e|------------------------|
B|------------------------|
G|-9-9-9----------5--7-7--|
D|-9-9-9--5-5--7--5--7-7--|
A|-7-7-7--5-5--7--3--5-5--|
E|--------3-3--5----------|

e|------------------------|
B|------------------------|
G|-9-9-9----------5--7-7--|
D|-9-9-9--5-5--7--5--7-7--|
A|-7-7-7--5-5--7--3--5-5--|
E|--------3-3--5----------|

e|------------------------|
B|------------------------|
G|-9-9-9----------5--7-7--|
D|-9-9-9--5-5--7--5--7-7--|
A|-7-7-7--5-5--7--3--5-5--|
E|--------3-3--5----------|

e|------------------------|
B|------------------------|
G|-9-9-9----------5--7-7--|
D|-9-9-9--5-5--7--5--7-7--|
A|-7-7-7--5-5--7--3--5-5--|
E|--------3-3--5----------|

e|------------------------|
B|------------------------|
G|-9-9-9----------5--7-7--|
D|-9-9-9--5-5--7--5--7-7--|
A|-7-7-7--5-5--7--3--5-5--|
E|--------3-3--5----------|

e|------------------------|
B|------------------------|
G|-9-9-9----------5--7-7--|
D|-9-9-9--5-5--7--5--7-7--|
A|-7-7-7--5-5--7--3--5-5--|
E|--------3-3--5----------|

e|------------------------|
B|------------------------|
G|-9-9-9----------5--7-7--|
D|-9-9-9--5-5--7--5--7-7--|
A|-7-7-7--5-5--7--3--5-5--|
E|--------3-3--5----------|

e|------------------------|
B|------------------------|
G|-9-9-9----------5--7-7--|
D|-9-9-9--5-5--7--5--7-7--|
A|-7-7-7--5-5--7--3--5-5--|
E|--------3-3--5----------|

e|------------------------|
B|------------------------|
G|--------9-9-9----------7|
D|--------9-9-9----------7|
A|0--3-3--7-7-7--0--3-3--5|
E|------------------------|

e|------------------------|
B|------------------------|
G|--------9-9-9----------7|
D|--------9-9-9----------7|
A|0--3-3--7-7-7--0--3-3--5|
E|------------------------|

e|------------------------|
B|------------------------|
G|-9-9-9----------5--7-7--|
D|-9-9-9--5-5--7--5--7-7--|
A|-7-7-7--5-5--7--3--5-5--|
E|--------3-3--5----------|

e|------------------------|
B|------------------------|
G|-9-9-9----------5--7-7--|
D|-9-9-9--5-5--7--5--7-7--|
A|-7-7-7--5-5--7--3--5-5--|
E|--------3-3--5----------|

e|------------------------|
B|------------------------|
G|-9-9-9----------5--7-7--|
D|-9-9-9--5-5--7--5--7-7--|
A|-7-7-7--5-5--7--3--5-5--|
E|--------3-3--5----------|

e|------------------------|
B|------------------------|
G|-9-9-9----------5--7-7--|
D|-9-9-9--5-5--7--5--7-7--|
A|-7-7-7--5-5--7--3--5-5--|
E|--------3-3--5----------|

e|------------------------|
B|------------------------|
G|-9-9-9----------5--7-7--|
D|-9-9-9--5-5--7--5--7-7--|
A|-7-7-7--5-5--7--3--5-5--|
E|--------3-3--5----------|

e|------------------------|
B|------------------------|
G|-9-9-9----------5--7-7--|
D|-9-9-9--5-5--7--5--7-7--|
A|-7-7-7--5-5--7--3--5-5--|
E|--------3-3--5----------|

e|------------------------|
B|------------------------|
G|-9-9-9----------5--7-7--|
D|-9-9-9--5-5--7--5--7-7--|
A|-7-7-7--5-5--7--3--5-5--|
E|--------3-3--5----------|

e|------------------------|
B|------------------------|
G|-9-9-9----------5--7-7--|
D|-9-9-9--5-5--7--5--7-7--|
A|-7-7-7--5-5--7--3--5-5--|
E|--------3-3--5----------|


Peace Out.
Comments