Scorpions - Rock You Like A Hurricane Chords & Tabs

 

Rock You Like A Hurricane Chords & Tabs

Scorpions Chords & Tabs

Version: 5 Type: Tab 0 ratings
1 star 2 stars 3 stars 4 stars 5 stars
comments

Rock You Like A Hurricane Tab

Scorpions - Rock You Like a Hurricane
Tabbed by: Matt 

Plz Rate!

Legend:

- b=bend
- r=release
- h=hammer-on
- p=pull-off
- < >=harmonics



Intro:

Riff A (also Chorus)
 E|----------------------------
 B|----------------------------
 G|----------------------------
 D|-9-9-9----------------------
 A|-7-7-7--5-5--7-7--10--11-11-
 E|--------3-3--5-5--8---9--9--



Solo 1 (over Riff A)
 E|-0-0--0-0-0--0-0--0-0--0-0-0-0-
 B|-------------------------------
 G|------------------------------- x3
 D|-------------------------------
 A|-------------------------------
 E|-------------------------------

 E|-0-0--0-0-0--0-3p0-
 B|-------------------3p0---------
 G|-----------------------2p0-----
 D|---------------------------2---
 A|-----------------------------3-
 E|-------------------------------

 E|--------15--------15--14h15p15-12-----------15---------17b19r17p15--17-
 B|-15b17-----15b17------------------15-15b17------15b17------------------
 G|-----------------------------------------------------------------------
 D|-----------------------------------------------------------------------
 A|-----------------------------------------------------------------------
 E|-----------------------------------------------------------------------

 E|-22b24--22b24--22b24-22b24-22p20-19p17-20p19-17p15-19p17-15h17p15p14-17b20-
 B|---------------------------------------------------------------------------
 G|---------------------------------------------------------------------------
 D|---------------------------------------------------------------------------
 A|---------------------------------------------------------------------------
 E|---------------------------------------------------------------------------
[ Tab from: http://www.guitartabs.cc/tabs/s/scorpions/rock_you_like_a_hurricane_tab_ver_5.html ]
 E|-------12-------12-------12-------12-------12-------12-------12-
 B|-15b17----15b17----15b17----15b17----15b17----15b17----15b17----
 G|----------------------------------------------------------------
 D|----------------------------------------------------------------
 A|----------------------------------------------------------------
 E|----------------------------------------------------------------
 
 E|-15r12-------------------------------
 B|-------15r12-------------------------
 G|-------------14r12-------------------
 D|-------------------14r12-------------
 A|-------------------------14r12-------
 E|-------------------------------15-12-



1st Verse

   P.M..............................|
 E||----------------------------------
 B||----------------------------------
 G||----------------------------------
 D||-5-5-5-9-9-9-9-9--5-5-5-9-9-7-7-7-
 A||-3-3-3-7-7-7-7-7--3-3-3-7-7-5-5-5-
 E||----------------------------------

   P.M..............................|
 E|----------------------------------||
 B|----------------------------------||
 G|----------------------------------|| x4
 D|-5-5-5-9-9-9-9-9--5-5-5-7-7-7-7-7-||
 A|-3-3-3-7-7-7-7-7--3-3-3-5-5-5-5-5-||
 E|----------------------------------||
  |            		              |
  | 				      |
  |Guitar 2                           |
 E|-------------------------------<12>|
 B|-----------------------------------| (this part is not on the repeats)
 G|-----------------------------<7>---|  
 D|---------------------------<7>-----|
 A|-----------------------------------|
 E|-----------------------------------|


2nd Verse

   P.M..............................|
 E||----------------------------------
 B||----------------------------------
 G||----------------------------------
 D||-5-5-5-9-9-9-9-9--5-5-5-9-9-7-7-7-
 A||-3-3-3-7-7-7-7-7--3-3-3-7-7-5-5-5-
 E||----------------------------------

   P.M..............................|
 E|----------------------------------||
 B|----------------------------------||
 G|----------------------------------|| x2
 D|-5-5-5-9-9-9-9-9--5-5-5-7-7-7-7-7-||
 A|-3-3-3-7-7-7-7-7--3-3-3-5-5-5-5-5-||
 E|----------------------------------||

 E||----------------------------------
 B||----------------------------------
 G||----------------------------------
 D||-5----9----------5-----9---7------
 A||-3----7----------3-----7---5------
 E||----------------------------------
 
 E|----------------------------------||
 B|----------------------------------||
 G|----------------------------------|| x2
 D|-5----9----------5-----7----------||
 A|-3----7----------3-----5----------||
 E|----------------------------------||

Sry but i didn't have time for the other solo, mabye i will be able
to tab it out for you later.
Comments